» » »

Electric Owls, Put The Candle Back Tabs (ver.2)

Artists:  A B C D E F G H I J K L M N O P Q R S T U V W X Y Z # 

Put The Candle Back Tabs (ver.2)

Electric Owls Tabs
 Rating:
4/5 (4 votes)
Put The Candle Back lessons Tabs too difficult? Try these video lessons and learn fast
1
                Electric Owls
Put, the Candle, Back!

Intro: (x2) (don't you just hate it when your little brother tabs it out better than you?)

e|----------------------------------------------------------------------------|
B|------5-3------------------5-3------5-3-3-5-5-8-----------------------------|
G|----------0-4-2-------------------------------------------------------------|
D|-----------------0h2-4-2-0--------------------------------------------------|
A|----------------------------------------------------------------------------|
E|--3-3---------------------------3-3-----------------------------------------|

Verse riff:

e|---------------------------------------------------------------------------|
B|---------------------------------------------------------------------------|
G|---------------------------------------------------------------------------|
D|---------------------------------------------------------------------------|
A|------------------2-2-2-3b-2-----------------------------------------------|
E|--2-2-2-2-5-5-5-5-------------(0)------------------------------------------|


Verse chords: (hard to hear but sounds correct)
 Em             G              Am         C
Got this crazy feelin' and I think it's about you
 Em           G                Am            C
Oh you got a man but now he's somewhere without you
 Em           G               Am           C
I don't wanna be the one who follows you home
 Em               G          Am
Hands inside my pockets I'm alone and

Chorus:
 C                  G                     D
You're turning me up, you're turning me down
                   Am              C
You're turning me inside out and upside down
            
Submit corrections

comments powered by Disqus
↑ Back to top | Electric Owls Tabs for Put The Candle Back. Lyrics for acoustic guitar and electric guitar. 1 Tablatures and chords are parodies/interpretations of the original songs. You may use it for private study, scholarship, research or language learning purposes only