» » »

Put The Candle Back Tabs (ver.1)

Artists:  A B C D E F G H I J K L M N O P Q R S T U V W X Y Z # 

Put The Candle Back Tabs (ver.1)

Electric Owls
Rating:
0/5 (0 votes)

Tabs too difficult? Try these video lessons and learn fast.
                -----------------------------------------------------------------------------
                             Put, The Candle, Back! - Electric Owls
-----------------------------------------------------------------------------


Tuning: Standard
Capo: 5th Fret


-INTRO-

e|------------------------------------------------|
B|------------------------------------------------|
G|---4-2----------------2-------4-2---4s6---6s7-7-|  (x2)
D|-0-----0-4--0-0h2p0-4---4---0-----4-----4-------|
A|------------------------------------------------|
E|------------------------------------------------|


-VERSE-

    B  D  Em G 

e|---------------|
B|---------------|
G|--4--7--9--12--|  (x4)
D|--4--7--9--12--|
A|--2--5--7--10--|
E|---------------|

  (Other Guitar / Bass line)

e|-------------------------------------|
B|-------------------------------------|
G|-------------------------------------|
D|----------0-0-0-0-2-2-2-2-2s5-5-5-5--|
A|--2-2-2-2----------------------------|
E|-------------------------------------|


-CHORUS-

    D    A    G  Em G  A
 
e|--2----0----3--0--3--0--|
B|--3----2----0--0--0--2--|
G|--2----2----0--0--0--2--|  (x2)
D|--0----2----0--2--0--2--|
A|--0----0----2--2--2--0--|
E|--0----0----3--0--3--0--|



| h = hammer-on
| p = pull-off
============================================================================
            
Tabs too difficult? Try these video lessons and learn fast.


comments powered by Disqus
↑ Back to top | Tablatures and chords are parodies/interpretations of the original songs. You may use it for private study, scholarship, research or language learning purposes only