>
 >
Fire On High 1

Fire On High 1 Guitar Tabs

Electric Light Orchestra - Fire On High 1 chords, tabs, tablatures, lyrics

Guitar lessons | Add/correct | Request | Top 50 tabs Artists:  A B C D E F G H I J K L M N O P Q R S T U V W X Y Z 0-9

Fire On High 1 Guitar Tabs – Electric Light Orchestra

CD, Sheet music, Poster

Do you like Fire On High 1? Share with your friends now
TabsTabs v2
Electric Light Orchestra
"Fire On High"

Tuning: Standard (EADGBe)

|------------------------------------|
| Key:                               |
|                                    |
| b() = bend to note in parentheses  |
| /   = slide up                     |
| \   = slide down                   |
| ~   = vibrato                      |
|------------------------------------|


Synthesizer Thing:

|-5h6h7--|  repeated millions
|--------|  and millions of
|--------|  times
|--------|
|--------|
|--------|


When Guitar Comes In

|---------------|
|---------------|
|---------------|
|--7-7----9-9---|
|--7-7----9-9---|
|--5-5----7-7---|


Guitar Solo Riff Thing (repeated several times throughout)

|------------------------------------------------------------------|
|--14b(16)r14--12-\-10--10b(12)r-8\7----5-7b(9)r-5\3/5~------------|
|--------------------------------------------------------4/6-6~~~--|
|------------------------------------------------------------------|
|------------------------------------------------------------------|
|------------------------------------------------------------------|

Orchestra Thing (after guitar riff)

|---0-2-0---------0-3--2-0--/5~~------/7~~~-------------|
|-3-------------2------------------3----------5\3\2~~---|
|-------------2-----------------------------------------|
|-------------------------------------------------------|
|-------------------------------------------------------|
|-------------------------------------------------------|


Acoustic Riff (Played on 12-string)

|-7-7-7-7-7-7----5-5-5-3-3----3-3-3-3-3-5-5--5-5--7-7---|
|-7-7-7-7-7-7----5-5-5-3-3----3-3-3-3-3-5-5--5-5--7-7---|
|-7-7-7-7-7-7----6-6-6-4-4----4-4-4-4-4-6-6--6-6--7-7---|
|-9-9-9-9-9-9----7-7-7-5-5----5-5-5-5-5-7-7--7-7--9-9---|
|-9-9-9-9-9-9----7-7-7-5-5----5-5-5-5-5-7-7--7-7--9-9---|
|-7-7-7-7-7-7----5-5-5-3-3----3-3-3-3-3-5-5--5-5--7-7---|





Comments


Popular Electric Light Orchestra tabs & chords
All She Wanted Chords
Bluebird Is Dead Chords
Eldorado 1 Chords
Lonesome Lullaby Chords
Mr Blue Sky 2 Chords
The Diary Of Horace Wimp 1 Chords
Mr Blue Sky 1 Tabs
Rock N Roll Is King Tabs
Send It Ukulele
Stranger Ukulele


Song lyrics



↑ Back to top | Tablatures and chords are parodies/interpretations of the original songs. You may use it for private study, scholarship, research or language learning purposes only
© 2014 AZChords.com Contact us | Privacy policy | DMCA | Add/correct tabs | Request tabs | Top 50 tabs