» » »

Fire On High Tabs (ver.2)

Artists:  A B C D E F G H I J K L M N O P Q R S T U V W X Y Z # 

Fire On High Tabs (ver.2)

Electric Light Orchestra
Rating:
5/5 (8 votes)

Hard to play? Try these video lessons and learn fast.
                -------------------------------------------------------------------------------
-------------------------------------------------------------------------------

Tuning:Standard

      Synthesizer part
e|-------------------------------------------------------------------------|
B|----058058058058058058058058058058058058058058058058058058058058058058---|
G|-------------------------------------------------------------------------|
D|-------------------------------------------------------------------------|
A|----7-7-9-9~---------------------7-7-9-9~--------------------------------|
E|----5-5-7-7~---------------------5-5-7-7~--------------------------------|

          Orchestral part
e|-------0---2---0-----------0---3---2--0--/5----------/7------------------|
B|----3-------------------2--------------------3-----------2---------------|
G|--------------------2----------------------------------------------------|
D|-------------------------------------------------------------------------|
A|-------------------------------------------------------------------------|
E|-------------------------------------------------------------------------|

         Guitar Breakdown
e|-----7777-5-5-5-33--3-33-5-7-7-------------------------------------------|
B|-----7777-5-5-5-33--3-33-5-7-7-------------------------------------------|
G|-----7777-6-6-6-44--4-44-6-7-7-------------------------------------------|
D|-----9999-7-7-7-55--5-55-7-9-9-------------------------------------------|
A|-----9999-7-7-7-55--5-55-7-9-9-------------------------------------------|
E|-----7777-5-5-5-33--3-33-5-7-7-------------------------------------------|

      Melody
e|-------------------------------------------------------------------------|
B|---14br-12/10------10br--8/7----/5--7br-5/3h5----------------------------|
G|----------------------------------------------4/6--6/2-------------------|
D|-------------------------------------------------------------------------|
A|-------------------------------------------------------------------------|
E|-------------------------------------------------------------------------|



| /  slide up
| \  slide down
| h  hammer-on
| p  pull-off
| ~  vibrato
| +  harmonic
| x  Mute note
===============================================================================
            
Hard to play? Try these video lessons and learn fast. | Correct




comments powered by Disqus
↑ Back to top | Tablatures and chords are parodies/interpretations of the original songs. You may use it for private study, scholarship, research or language learning purposes only