» » »

La Chica De Ayer Tabs (ver.1)

Artists:  A B C D E F G H I J K L M N O P Q R S T U V W X Y Z # 

La Chica De Ayer Tabs (ver.1)

El Canto Del Loco
Rating:
0/5 (0 votes)

Hard to play? Try these video lessons and learn fast.
                Intro
                             LA#m               SI
E |--------11--9-11-9------------|------9----------|
B |----11-----------------9--11--|--11----11/9--7--|
G |-11-----------------11--------|-----------------|
D |------------------------------|-----------------|
A |------------------------------|-----------------|
E |------------------------------|-----------------|
                        DO#                 FA#
E |----7----6-----------------|------6------6/7--6-----|
B |--------------9------------|--6-7---7------------4--|
G |--8----8----8----8/6-8/11--|----------6-------------|
D |---------------------------|------------------------|
A |---------------------------|------------------------|
E |---------------------------|------------------------|

LA#m            SI                       FA#
     Un día cualquiera no sabes qué hora es
SI                    DO#                FA#
     Te acuestas a mi lado sin saber por qué
LA#m            SI                      FA#
     Las calles mojadas te han visto crecer
SI                DO#                     FA#
     Y con tu corazón estás llorando otra vez


FA#                  LA#m                SI
    Me asomo a la ventana es la chica de ayer
FA#                 LA#m            SI       DO#
    Jugando con las flores en mi jardín, uoo uoooooo
LA#m          SI                FA#
    Demasiado tarde para comprender
LA#m         SI                 FA#
    Chica, vete a tu casa, no podemos jugar


LA#m               SI                    FA#
    La luz de la mañana entra a mi habitación
SI                 DO#              FA#
    Tus cabellos dorados parecen el sol
LA#m             SI                   FA#
    Luego por la noche al Penta a escuchar
SI                   DO#                 FA#   SI  DO#
    Canciones que consiguen que te pueda amar, aaa aaaaaa


SOLO
E |------6------6/7--6----|----------------------2--|
B |--6-7---7-----------4--|----4------------0--4----|
G |----------6------------|--4----6--4-3------------|
D |-----------------------|--------------4----------|
A |-----------------------|-------------------------|
E |-----------------------|-------------------------|


LA#m           SI                       FA#
    Un día cualquiera no sabes qué hora es
SI           DO#          FA#        SI               DO#
    Y tú te acuestas a mi lado sin saber por qué, eee eeeeee


FA#                  LA#m                SI
    Me asomo a la ventana es la chica de ayer
FA#                 LA#m            SI       DO#
    Jugando con las flores en mi jardín, uoo uoooooo
LA#m          SI                FA#
    Demasiado tarde para comprender
LA#m         SI                 FA#
    Chica, vete a tu casa, no podemos jugar
LA#m         SI                 FA#
    Chica, vete a tu casa, no podemos jugar
LA#m       SI                 FA#
    Mi cabeza da vueltas persiguiéndote
            
Hard to play? Try these video lessons and learn fast. | Correct




comments powered by Disqus
↑ Back to top | Tablatures and chords are parodies/interpretations of the original songs. You may use it for private study, scholarship, research or language learning purposes only