>
 >
La Chica De Ayer 1

La Chica De Ayer 1 Guitar Tabs

El Canto Del Loco - La Chica De Ayer 1 chords, tabs, tablatures, lyrics

Guitar lessons | Add/correct | Request | Top 50 tabs Artists:  A B C D E F G H I J K L M N O P Q R S T U V W X Y Z 0-9

La Chica De Ayer 1 Guitar Tabs – El Canto Del Loco

CD, Sheet music, Poster

Do you like La Chica De Ayer 1? Share with your friends now
TabsTabs v2
(You can also put a capo on the 2nd fret, it changes chords though, but it         
makes the fill on F# a lot easier)
  


La Chica de Ayer – El Canto del loco


e|-----11-9-11p9----------/9--------------|
B|---11-------------9-11^~---11^p9--------|
G|-11------------11----------------11-----|
D|----------------------------------------|
A|----------------------------------------|
E|----------------------------------------|


e|---7---6----------------------------------------|
B|-----------9---------------11-------11b12-------|
G|-8---8---8---8-8/6/10--10-11----11----------8~~-|
D|---------------------------------11-------------|
A|------------------------------------------------|
E-------------------------------------------------|





A#m        G#m                     F# (fill)
Un día cualquiera no sabes qué hora es
G#m              C#sus2            F# (fill)
Te acuestas a mi lado sin saber por qué
A#m         G#m                  F# (fill)
Las calles mojadas te han visto crecer
G#m          C#sus2                 F# (fill)
Y con tu corazón estás llorando otra vez


F#           C#sus2                 Bsus2
Me asomo a la ventana es la chica de ayer
F#             C#sus2             Bsus2 
Jugando con las flores en mi jardín, uoo uoooooo
C#sus2    Bsus2             F#
Demasiado tarde para comprender
C#sus2          Bsus2              F#
Chica, vete a tu casa, no podemos jugar


A#m          G#m               F# (fill)
La luz de la mañana entra a mi habitación
G#m           C#sus2           F# (fill)
Tus cabellos dorados parecen el sol
A#m          G#m               F# (fill)
Luego por la noche al Penta a escuchar
G#m           C#sus2                  F# 
Canciones que consiguen que te pueda amar, aaa aaaaaa




SOLO
E |-------------------------------------------------------|
B |--------11-----11b12-----------------------------------|
G |--10-11---11---------8----11---------------8--11-------|
D |------------11----------11---11-9-8---8/9--------------|
A |------------------------------------9------------------|
E |-------------------------------------------------------|



A#m        G#m                     F# (fill)
Un día cualquiera no sabes qué hora es
G#m              C#sus2            F# (fill)
Te acuestas a mi lado sin saber por qué




F#           C#sus2                 Bsus2
Me asomo a la ventana es la chica de ayer
F#             C#sus2             Bsus2 
Jugando con las flores en mi jardín, uoo uoooooo
C#sus2    Bsus2             F#
Demasiado tarde para comprender
C#sus2          Bsus2              F#
Chica, vete a tu casa, no podemos jugar
C#sus2          Bsus2              F#
Chica, vete a tu casa, no podemos jugar
C#sus2          Bsus2            F#
Mi cabeza da vueltas persiguiéndote





Comments


Popular El Canto Del Loco tabs & chords
Acuerdate Chords
Contigo 2 Chords
Desaparece Chords
Puede Ser Chords
Como Un Perro Ladrando Tabs
La Chica De Ayer Tabs
Volver A Disfrutar Tabs
Puede Ser Ukulele
Sera Ukulele
Vuelve Ukulele


Song lyrics



↑ Back to top | Tablatures and chords are parodies/interpretations of the original songs. You may use it for private study, scholarship, research or language learning purposes only
© 2014 AZChords.com Contact us | Privacy policy | DMCA | Add/correct tabs | Request tabs | Top 50 tabs