>
 >
Waiting For The Heavens

Waiting For The Heavens Guitar Tabs

Eighteen Visions - Waiting For The Heavens chords, tabs, tablatures, lyrics

Guitar lessons | Add/correct | Request | Top 50 tabs Artists:  A B C D E F G H I J K L M N O P Q R S T U V W X Y Z 0-9

Waiting For The Heavens Guitar Tabs – Eighteen Visions

CD, Sheet music, Poster

Do you like Waiting For The Heavens? Share with your friends now
Bass TabsBass Tabs v2TabsTabs v2Tabs v3
----------------
EIGHTEEN VISIONS
----------------

-----------------------
WAITING FOR THE HEAVENS
-----------------------

-----------------------------
-----------------------------

Tuning - Drop B, low to high (B F# B E G# C#)

Guitar I (B F# B E G# C#) - 'Untitled'
Guitar II (B F# B E G# C#) - 'Untitled'
Guitar III (B F# B E G# C#) - 'Untitled'
Guitar IV (B F# B E G# C#) - 'Untitled'

-----------------------------------------------------------------------------
   Intro (Q=80; Time Signature: 4/4)
-----------------------------------------------------------------------------

  Guitar I
     H.        Q      W
||--^7-------^10--|-^10-----||
||o-^7-------^10--|-^10----o||
||--^9-------^12--|-^-9-----||
||--^9-------^12--|-^12-----||
||o---------------|--------o||
||----------------|---------||

-----------------------------------------------------------------------------

  Guitar I
   H.                         Q           W
|-^7------------------------^10-------|-^10------------------------------|
|-^7------------------------^10-------|-^10------------------------------|
|-^9------------------------^12-------|-^-9------------------------------|
|-^9------------------------^12-------|-^12------------------------------|
|-------------------------------------|----------------------------------|
|-------------------------------------|----------------------------------|
|
| Guitar II
|  S  S S S S S S S S S S S   S S S S     S S S S S S S S S S S S S S E
|---------2-----------2-------2---2---|---------0-----------0------------|
|--0----0---0---0---0---0-------3---3-|---5---5---5---5---5---5---5---0--|
|-----4-------4---4-------4-----------|-----7-------7---7-------7---7----|
|-------------------------------------|----------------------------------|
|-------------------------------------|----------------------------------|
|-------------------------------------|----------------------------------|

-----------------------------------------------------------------------------

  Guitar I
   H.                         Q           W
|-^7------------------------^10-------|-^10--------------------------------|
|-^7------------------------^10-------|-^10--------------------------------|
|-^9------------------------^12-------|-^-9--------------------------------|
|-^9------------------------^12-------|-^12--------------------------------|
|-------------------------------------|------------------------------------|
|-------------------------------------|------------------------------------|
|
| Guitar II
|  S  S S S S S S S S S S S   S S S S     S  S S S S S S S S S S S S S E
|---------2-----------2-------2---2---|----------0-----------0-------------|
|--0----0---0---0---0---0-------3---3-|---5----5---5---5---5---5---5---0---|
|-----4-------4---4-------4-----------|------7-------7---7-------7---7-----|
|-------------------------------------|------------------------------------|
|-------------------------------------|------------------------------------|
|-------------------------------------|------------------------------------|
|
| Guitar III
|  W                                      H.                       S S S S
|-------------------------------------|------------------------------------|
|-------------------------------------|------------------------------------|
|-------------------------------------|------------------------------------|
|-------------------------------------|----------------------------4-2-0-2-|
|-------------------------------------|----------------------------4-2-0-2-|
|-------------------------------------|----------------------------4-2-0-2-|

-----------------------------------------------------------------------------

  Guitar III                   PS
  +W               +H.      Q
|----------------|--------------|
|----------------|--------------|
|----------------|--------------|
|-(2)------------|-(2)----------|
|-(2)------------|-(2)----------|
|-(2)------------|-(2)------x\--|
|
| Guitar IV
|  E   H..          W
|-----^0---------|--0-----------|
|-----^0---------|--0-----------|
|-----^0---------|--0-----------|
|----------------|--------------|
|----------------|--------------|
|----------------|--------------|

-----------------------------------------------------------------------------

  Guitar I                PS
   W           H.      Q
|-^0--------|--0------------||
|-^3--------|--3------------||
|-^2--------|--2------------||
|-^0--------|-(0)-----------||
|-^0--------|-(0)-----------||
|-^0--------|-(0)------x\---||
|
| Guitar II
|  W           W
|-^0--------|--0------------||
|-^3--------|--3------------||
|-^2--------|--2------------||
|-^0--------|-(0)-----------||
|-^0--------|-(0)-----------||
|-^0--------|-(0)-----------||

-----------------------------------------------------------------------------
 Pre-Verse
-----------------------------------------------------------------------------

  $
  Gtrs III, IV
                PM----------|                 PM----------|
  S S E S S S E S S S S S S S   S S E S S S E S S S S S S S
|-----------------------------|-----------------------------|
|-----------------------------|-----------------------------|
|-----------------------------|-----------------------------|
|-0h2-2-0h2-1-0---------------|-0h2-2-0h2-1-0---------------|
|-0h2-2-0h2-1-0-0-0-0-0-0-0-0-|-0h2-2-0h2-1-0-0-0-0-0-0-0-0-|
|-0h2-2-0h2-1-0-0-0-0-0-0-0-0-|-0h2-2-0h2-1-0-0-0-0-0-0-0-0-|

-----------------------------------------------------------------------------

  Guitar I
                PM----------|                 PM  PM----|
  S S E S S S E S S S S S S S   S S E S S S E S E S S S S
|-----------------------------|----------------------------||
|-----------------------------|----------------------------||
|-----------------------------|----------------------------||
|-0h2-2-0h2-1-0---------------|-0h2-2-0h2-1-0---0----------||
|-0h2-2-0h2-1-0-0-0-0-0-0-0-0-|-0h2-2-0h2-1-0-0-0-0-0-0-0--||
|-0h2-2-0h2-1-0-0-0-0-0-0-0-0-|-0h2-2-0h2-1-0-0-0-0-0-0-0--||

-----------------------------------------------------------------------------
 Verse
-----------------------------------------------------------------------------

  Guitar I
        PM----|   PM|   PM|             PM----|   PM|   PM|
  S S E S S S S S S S S S S S S   S S E S S S S S S S S S S S S
|-------------------------------|-------------------------------|
|-------------------------------|-------------------------------|
|-------------------------------|-------------------------------|
|-0h2-2-------------------------|-0h2-2-------------------------|
|-0h2-2-0-2-1-0---0-0---0-0-----|-0h2-2-0-2-1-0---0-0---0-0-----|
|-0-2-2-0-2-1-0---0-0---0-0-----|-0-2-2-0-2-1-0---0-0---0-0-----|

-----------------------------------------------------------------------------

  Guitar III
        PM----|   PM|   PM|                     PM  PM|
  S S E S S S S S S S S S S S S   S S E S S S E S E S S  E   a
|-------------------------------|------------------------------|
|-------------------------------|------------------------------|
|-------------------------------|------------------------------|
|-0h2-2-------------------------|-0h2-2-0h2-1-0---0-----14S==0-|
|-0h2-2-0-2-1-0---0-0---0-0-----|-0h2-2-0h2-1-0-0-0-0-0-14S==0-|
|-0-2-2-0-2-1-0---0-0---0-0-----|-0h2-2-0h2-1-0-0-0-0-0-14S==0-|
|
| Guitar IV
|       PM----|   PM|   PM|                     PM  PM-----|
| S S E S S S S S S S S S S S S   S S E S S S E S E S S  S S
|-------------------------------|------------------------------|
|-------------------------------|------------------------------|
|-------------------------------|------------------------------|
|-0h2-2-------------------------|-0h2-2-0h2-1-0---0------------|
|-0h2-2-0-2-1-0---0-0---0-0-----|-0h2-2-0h2-1-0-0-0-0-0--0-0---|
|-0-2-2-0-2-1-0---0-0---0-0-----|-0h2-2-0h2-1-0-0-0-0-0--0-0---|

-----------------------------------------------------------------------------

  Guitar I
                PM----|   PM|                 PM----|   PM|
  S S E S S S E S S S S S S S   S S E S S S E S S S S S S S
|-----------------------------|-----------------------------|
|-----------------------------|-----------------------------|
|-----------------------------|-----------------------------|
|-0h2-2-0h2-1-0---------0-----|-0h2-2-0h2-1-0---------0-----|
|-0h2-2-0h2-1-0-0-0-0-0-0-0-0-|-0h2-2-0h2-1-0-0-0-0-0-0-0-0-|
|-0h2-2-0h2-1-0-0-0-0-0-0-0-0-|-0h2-2-0h2-1-0-0-0-0-0-0-0-0-|
|
| Guitar II        PM----|   PM|
| S S E S S S E S S S S S S S   S S E S S S E S S S S S S S
|-----------------------------|-----------------------------|
|-----------------------------|-----------------------------|
|-----------------------------|-----------------------4-----|
|-0h2-2-0h2-1-0---------0-----|-0h2-2-0h2-1-0-------2---2---|
|-0h2-2-0h2-1-0-0-0-0-0-0-0-0-|-0h2-2-0h2-1-0-----2-------2-|
|-0h2-2-0h2-1-0-0-0-0-0-0-0-0-|-0h2-2-0h2-1-0-0-2-----------|

-----------------------------------------------------------------------------

  Gtrs III, IV
                PM----|   PM|
  S S E S S S E S S S S S S S   S S E S S S S +H
|-----------------------------|----------------------||
|-----------------------------|----------------------||
|-----------------------------|----------------------||
|-0h2-2-0h2-1-0---------0-----|-0h2-2-0h2-1-0-(0)----||
|-0h2-2-0h2-1-0-0-0-0-0-0-0-0-|-0h2-2-0h2-1-0-(0)----||
|-0h2-2-0h2-1-0-0-0-0-0-0-0-0-|-0h2-2-0h2-1-0-(0)----||

-----------------------------------------------------------------------------
 Pre-Chorus
-----------------------------------------------------------------------------

  Guitar I
   H.                         Q           W
|-^7------------------------^10-------|-^10------------------------------|
|-^7------------------------^10-------|-^10------------------------------|
|-^9------------------------^12-------|-^-9------------------------------|
|-^9------------------------^12-------|-^12------------------------------|
|-------------------------------------|----------------------------------|
|-------------------------------------|----------------------------------|
|
| Guitar II
|  S  S S S S S S S S S S S   S S S S     S S S S S S S S S S S S S S E
|---------2-----------2-------2---2---|---------0-----------0------------|
|--0----0---0---0---0---0-------3---3-|---5---5---5---5---5---5---5---0--|
|-----4-------4---4-------4-----------|-----7-------7---7-------7---7----|
|-------------------------------------|----------------------------------|
|-------------------------------------|----------------------------------|
|-------------------------------------|----------------------------------|

-----------------------------------------------------------------------------

  Guitar I
   H.                         Q           W
|-^7------------------------^10-------|-^10---------------------------------|
|-^7------------------------^10-------|-^10---------------------------------|
|-^9------------------------^12-------|-^-9---------------------------------|
|-^9------------------------^12-------|-^12---------------------------------|
|-------------------------------------|-------------------------------------|
|-------------------------------------|-------------------------------------|
|
| Guitar II
|  S  S S S S S S S S S S S   S S S S     S  S S S S S S S S S S S  S  S E
|---------2-----------2-------2---2---|----------0-----------0--------------|
|--0----0---0---0---0---0-------3---3-|---5----5---5---5---5---5----5----0--|
|-----4-------4---4-------4-----------|------7-------7---7-------7-----7----|
|-------------------------------------|-------------------------------------|
|-------------------------------------|-------------------------------------|
|-------------------------------------|-------------------------------------|
|
| Gtrs III, IV
|  W                                      H.                        Q
|-------------------------------------|-------------------------------------|
|-------------------------------------|-------------------------------------|
|-------------------------------------|-------------------------------------|
|-------------------------------------|----------------------------14\------|
|-------------------------------------|----------------------------14\------|
|-------------------------------------|----------------------------14\------|

-----------------------------------------------------------------------------
   Chorus
-----------------------------------------------------------------------------

    Gtrs III, IV
     S  S S S S S S S S S  S S   S S S S
||---------------------------------------|
||o--------------------------------------|
||---------------------------------------|
||---2--2-2-2-2-2-2-2-2-2-/5-5---5-5-5-5-|
||o--2--2-2-2-2-2-2-2-2-2-/5-5---5-5-5-5-|
||---2--2-2-2-2-2-2-2-2-2-/5-5---5-5-5-5-|
|
|   Guitar I
|    H.                          Q
||--^7-------------------------^10-------|
||o-^7-------------------------^10-------|
||--^9-------------------------^12-------|
||--^9-------------------------^12-------|
||o--------------------------------------|
||---------------------------------------|
|
|   Guitar II
|    S  S S S S S S S S S  S S   S S S S
||----------2-----------2--------2---2---|
||o--0----0---0---0---0----0-------3---3-|
||------4-------4---4--------4-----------|
||---------------------------------------|
||o--------------------------------------|
||---------------------------------------|

-----------------------------------------------------------------------------

  Guitar I
                                D.S.
    S S S S S S S S S S S S S S S S   4x
|-------------------------------------||
|------------------------------------o||
|-------------------------------------||
|---0-0-0-0-0-0-0-0-0-0-0-0-0-0-0-0---||
|---0-0-0-0-0-0-0-0-0-0-0-0-0-0-0-0--o||
|---0-0-0-0-0-0-0-0-0-0-0-0-0-0-0-0---||
|
| Guitar II
|   W                                 4x
|-^10---------------------------------||
|-^10--------------------------------o||
|-^-9---------------------------------||
|-^12---------------------------------||
|------------------------------------o||
|-------------------------------------||
|
| Guitar III
|   S S S S S S S S S S S S S S E     4x
|---------0-----------0---------------||
|---5---5---5---5---5---5---5---0----o||
|-----7-------7---7-------7---7-------||
|-------------------------------------||
|------------------------------------o||
|-------------------------------------||

-----------------------------------------------------------------------------
 Outro
-----------------------------------------------------------------------------

  Guitar III
                PM----|   PM|                 PM----|   PM|
  S S E S S S E S S S S S S S   S S E S S S E S S S S S S S
|-----------------------------|-----------------------------|
|-----------------------------|-----------------------------|
|-----------------------------|-----------------------------|
|-0h2-2-0h2-1-0---------0-----|-0h2-2-0h2-1-0---------0-----|
|-0h2-2-0h2-1-0-0-0-0-0-0-0-0-|-0h2-2-0h2-1-0-0-0-0-0-0-0-0-|
|-0h2-2-0h2-1-0-0-0-0-0-0-0-0-|-0h2-2-0h2-1-0-0-0-0-0-0-0-0-|
|
| Guitar IV
|               PM----|   PM|
| S S E S S S E S S S S S S S   S S E S S S E S S S S S S S
|-----------------------------|-----------------------------|
|-----------------------------|-----------------------------|
|-----------------------------|-----------------------4-----|
|-0h2-2-0h2-1-0---------0-----|-0h2-2-0h2-1-0-------2---2---|
|-0h2-2-0h2-1-0-0-0-0-0-0-0-0-|-0h2-2-0h2-1-0-----2-------2-|
|-0h2-2-0h2-1-0-0-0-0-0-0-0-0-|-0h2-2-0h2-1-0-0-2-----------|

-----------------------------------------------------------------------------

  Gtrs III, IV
                PM----|   PM|
  S S E S S S E S S S S S S S   S S E S S S S +H
|-----------------------------|----------------------|
|-----------------------------|----------------------|
|-----------------------------|----------------------|
|-0h2-2-0h2-1-0---------0-----|-0h2-2-0h2-1-0-(0)----|
|-0h2-2-0h2-1-0-0-0-0-0-0-0-0-|-0h2-2-0h2-1-0-(0)----|
|-0h2-2-0h2-1-0-0-0-0-0-0-0-0-|-0h2-2-0h2-1-0-(0)----|

-----------------------------------------------------------------------------

  Guitar I
        PM----|   PM|   PM|   PM        PM----|   PM|   PM|   PM
  S S E S S S S S S S S S S S S   S S E S S S S S S S S S S S S
|-------------------------------|-------------------------------|
|-------------------------------|-------------------------------|
|-------------------------------|-------------------------------|
|-0h2-2-------------------------|-0h2-2-------------------------|
|-0h2-2-0-2-1-0---0-0---0-0---0-|-0h2-2-0-2-1-0---0-0---0-0---0-|
|-0-2-2-0-2-1-0---0-0---0-0---0-|-0-2-2-0-2-1-0---0-0---0-0---0-|

-----------------------------------------------------------------------------

  Guitar I
        PM----|   PM|   PM|   PM       ~~~
  S S E S S S S S S S S S S S S   S S  E  S S S E. Q.
|-------------------------------|----------------------|
|-------------------------------|----------------------|
|-------------------------------|----------------------|
|-0h2-2-------------------------|-0h3-[3]-0-3-0-5--0---|
|-0h2-2-0-2-1-0---0-0---0-0---0-|-0h3-----0-3-0-5--0---|
|-0-2-2-0-2-1-0---0-0---0-0---0-|-0-3-----0-3-0-5--0---|

-----------------------------------------------------------------------------

  Guitar I
        PM----|   PM|   PM|   PM        PM----|   PM|   PM|   PM
  S S E S S S S S S S S S S S S   S S E S S S S S S S S S S S S
|-------------------------------|-------------------------------|
|-------------------------------|-------------------------------|
|-------------------------------|-------------------------------|
|-0h2-2-------------------------|-0h2-2-------------------------|
|-0h2-2-0-2-1-0---0-0---0-0---0-|-0h2-2-0-2-1-0---0-0---0-0---0-|
|-0-2-2-0-2-1-0---0-0---0-0---0-|-0-2-2-0-2-1-0---0-0---0-0---0-|

-----------------------------------------------------------------------------

  Guitar I
        PM----|   PM|   PM|   PM        PM
  S S E S S S S S S S S S S S S   S S E S S S S +H
|-------------------------------|----------------------*|
|-------------------------------|----------------------*|
|-------------------------------|----------------------*|
|-0h2-2-------------------------|-0h2-2---2-1-0-(0)----*|
|-0h2-2-0-2-1-0---0-0---0-0---0-|-0h2-2-0-2-1-0-(0)----*|
|-0-2-2-0-2-1-0---0-0---0-0---0-|-0-2-2-0-2-1-0-(0)----*|


Duration Legend
---------------
W - whole; H - half; Q - quarter; E - 8th; S - 16th; T - 32nd; X - 64th; a - acciaccatura
+ - note tied to previous; . - note dotted; .. - note double dotted
Uncapitalized letters represent notes that are staccato (1/2 duration)
Irregular groupings are notated above the duration line
Duration letters will always appear directly above the note/fret number it represents the
duration for.  Duration letters with no fret number below them represent rests.  Multi-
bar rests are notated in the form Wxn, where n is the number of bars to rest for.  Low
melody durations appear below the staff

Tablature Legend
----------------
 h   - hammer-on
 p   - pull-off
 b   - bend
 pb  - pre-bend
 r   - bend release (if no number after the r, then release immediately)
 /\  - slide into or out of (from/to "nowhere")
 s   - legato slide
 S   - shift slide
  - natural harmonic
[n]  - artificial harmonic
n(n) - tapped harmonic
 ~   - vibrato
 tr  - trill
 T   - tap
 TP  - trem. picking
 PM  - palm muting
\n/  - tremolo bar dip; n = amount to dip
 \n  - tremolo bar down
 n/  - tremolo bar up
/n\  - tremolo bar inverted dip
 =   - hold bend; also acts as connecting device for hammers/pulls
 <>  - volume swell (louder/softer)
 x   - on rhythm slash represents muted slash
 o   - on rhythm slash represents single note slash

Misc Legend
-----------
 |  - bar
||  - double bar
||o - repeat start
o|| - repeat end
*|  - double bar (ending)
 :  - bar (freetime)
 $  - Segno
 &  - Coda
Tempo markers -  = BPM(8/16=s8/s16), where s8 = swing 8ths, s16 = swing 16ths





Comments


Popular Eighteen Visions tabs & chords
Waiting For The Heavens Bass Tabs
Waiting For The Heavens 1 Bass Tabs
A Long Way Home Tabs
Brokem Hearted Tabs
Brokenhearted Tabs
Coma Tabs
Guilty Pleasures Tabs
Our Darkest Days Tabs
Tower Of Snakes 1 Tabs
Victim 2 Tabs


Song lyrics



↑ Back to top | Tablatures and chords are parodies/interpretations of the original songs. You may use it for private study, scholarship, research or language learning purposes only
© 2014 AZChords.com Contact us | Privacy policy | DMCA | Add/correct tabs | Request tabs | Top 50 tabs