» » »

Eighteen Visions, Waiting For The Heavens Bass tabs (ver.2)

Artists:  A B C D E F G H I J K L M N O P Q R S T U V W X Y Z # 

Waiting For The Heavens Bass tabs (ver.2)

Eighteen Visions Tabs
Rating:
0/5 (0 votes)
Waiting For The Heavens lessons Tabs too difficult? Try these video lessons and learn fast
                Band: Eighteen Visions

E |-------------------------------------------|
B |-------------------------------------------|
F#|-------------------------------------------|
B |-3-2-0-2-------0-1-2-3-2-1-0-0-0-0-0-0-0-0-|

E |------------------------------|
B |------------------------------|
F#|------------------------------|
B |--0-1-2-3-2-1-0-0-0-0-0-0-0-0-|


E |------------|
B |------------|
F#|------------|
B |--0-1-2-3/5-|


E |------------------------------|
B |------------------------------|
F#|------------------------------|
B |--0-1-2-3-2-1-0-0-0-0-0-0-0-0-|

E |----------------------------|
B |----------------------------|
F#|----------------------------|
B |-2-2-2-22-2-2--1-1-1-11-1-1-| x2


E |------------------------------------------------------------------------|
B |------------------------------------------------------------------------|
F#|------------------------------------------------------------------------|
B |1-1-1-1-1-1-1-1-1-2-2-2-2-2-2-2-2-2-1-1-1-1-1-1-1-1-1-0-0-0-0-0-0-0-0-0-|
x2

E |------------------------------|
B |------------------------------|
F#|------------------------------|
B |--0-1-2-3-2-1-0-0-0-0-0-0-0-0-|

E |----------------------------|
B |----------------------------|
F#|----------------------------|
B |-2-2-2-22-2-2--1-1-1-11-1-1-| x2


E |------------------------------------------------------------------------|
B |------------------------------------------------------------------------|
F#|------------------------------------------------------------------------|
B |1-1-1-1-1-1-1-1-1-2-2-2-2-2-2-2-2-2-1-1-1-1-1-1-1-1-1-0-0-0-0-0-0-0-0-0-|
x2


E |------------------------------|
B |------------------------------|
F#|------------------------------|
B |--0-1-2-3-2-1-0-0-0-0-0-0-0-0-|


E |------------------------------|
B |------------------------------|
F#|------------------------------|
B |--0-1-2-3/5-5-5-3-0-0-0-0-0-0-|


E |------------------------------|
B |------------------------------|
F#|------------------------------|
B |--0-1-2-3-2-1-0-0-0-0-0-0-0-0-|


E |----------------|
B |----------------|
F#|----------------|
B |--0-1-2-3-2-1-0-|
            
Submit corrections

comments powered by Disqus
↑ Back to top | Eighteen Visions Bass for Waiting For The Heavens. Lyrics for acoustic guitar and electric guitar. Tablatures and chords are parodies/interpretations of the original songs. You may use it for private study, scholarship, research or language learning purposes only