>
 >
Tower Of Snakes 1

Tower Of Snakes 1 Guitar Tabs

Eighteen Visions - Tower Of Snakes 1 chords, tabs, tablatures, lyrics

Guitar lessons | Add/correct | Request | Top 50 tabs Artists:  A B C D E F G H I J K L M N O P Q R S T U V W X Y Z 0-9

Tower Of Snakes 1 Guitar Tabs – Eighteen Visions

CD, Sheet music, Poster

Do you like Tower Of Snakes 1? Share with your friends now
Bass TabsTabsTabs v2
Artist/Band - Eighteen Visions
Album - Obsession
Song - Tower Of Snakes

Tuning: Drop B (Db Ab E B Gb B)

Key:
/      = Slide Down
PM     = Palm Mute
x      = Mute String
~      = Let Note Ring Out


Verse 1:                             x2
Db]------------------------------------|
Ab]------------------------------------|
E ]------------------------------------|
B ]--5-4-0-8-5-0-5-4-0-8-5-0--0-0-0-0--|
Gb]--5-4-0-8-5-0-5-4-0-8-5-0--0-0-0-0--|
B ]--5-4-0-8-5-0-5-4-0-8-5-0--0-0-0-0--|
PM                            . . . .

Db]------------------------------------|
Ab]------------------------------------|
E ]------------------------------------|
B ]--5-4-0-8-5-0-5-4-0-8-5-0--0000000--|
Gb]--5-4-0-8-5-0-5-4-0-8-5-0--0000000--|
B ]--5-4-0-8-5-0-5-4-0-8-5-0--0000000--|
PM                            .......


Pre-Chorus:
Db]-------------------------------------|
Ab]-------------------------------------|
E ]-------------------------------------|
B ]--0-0-0-0-4-0-0-0-0-0-0-0-0-4/0-4/0--| x4
Gb]--0-0-0-0-4-0-0-0-0-0-0-0-0-4/0-4/0--|
B ]--0-0-0-0-4-0-0-0-0-0-0-0-0-4/0-4/0--|
PM   . . . .   . . . . . . . .


Chorus:                                              x2
Db]----------------------------------------------------|
Ab]----------------------------------------------------|
E ]--11-11-11-11-11-11-11-11--12-12-12-12-12-12-12-12--|
B ]--11-11-11-11-11-11-11-11--12-12-12-12-12-12-12-12--|
Gb]---9--9--9--9--9--9--9--9--10-10-10-10-10-10-10-10--|
B ]----------------------------------------------------|

Db]----------------------------------------------------|
Ab]----------------------------------------------------|
E ]--11-11-11-11-11-11-11-11--10-10-10-10-10-10-10-10--|
B ]--11-11-11-11-11-11-11-11---x--x--x--x--x--x--x--x--|
Gb]---9--9--9--9--9--9--9--9---8--8--8--8--8--8--8--8--|
B ]----------------------------------------------------|


Verse 2:                             x2
Db]------------------------------------|
Ab]------------------------------------|
E ]------------------------------------|
B ]------------------------------------|
Gb]------------------------------------|
B ]--5-4-0-8-5-0-5-4-0-8-5-0--0-0-0-0--|
PM                            . . . .

Db]------------------------------------|
Ab]------------------------------------|
E ]------------------------------------|
B ]------------------------------------|
Gb]------------------------------------|
B ]--5-4-0-8-5-0-5-4-0-8-5-0--0000000--|
PM                            .......


Pre-Chorus:
Db]-------------------------------------|
Ab]-------------------------------------|
E ]-------------------------------------|
B ]--0-0-0-0-4-0-0-0-0-0-0-0-0-4/0-4/0--| x4
Gb]--0-0-0-0-4-0-0-0-0-0-0-0-0-4/0-4/0--|
B ]--0-0-0-0-4-0-0-0-0-0-0-0-0-4/0-4/0--|
PM   . . . .   . . . . . . . .


Chorus:                                              x2
Db]----------------------------------------------------|
Ab]----------------------------------------------------|
E ]--11-11-11-11-11-11-11-11--12-12-12-12-12-12-12-12--|
B ]--11-11-11-11-11-11-11-11--12-12-12-12-12-12-12-12--|
Gb]---9--9--9--9--9--9--9--9--10-10-10-10-10-10-10-10--|
B ]----------------------------------------------------|

Db]----------------------------------------------------|
Ab]----------------------------------------------------|
E ]--11-11-11-11-11-11-11-11--10-10-10-10-10-10-10-10--|
B ]--11-11-11-11-11-11-11-11---x--x--x--x--x--x--x--x--|
Gb]---9--9--9--9--9--9--9--9---8--8--8--8--8--8--8--8--|
B ]----------------------------------------------------|


Chorus Part 2:
Db]-----------------------------|
Ab]-----------------------------|
E ]--10-10-10-10-10-10--12--7~--|
B ]---x--x--x--x--x--x---x--x---|
Gb]---8--8--8--8--8--8--10--5~--|
B ]-----------------------------|


Interlude:
Db]---------------------------------------------------------|
Ab]---------------------------------------------------------|
E ]---------------------------------------------------------|
B ]--4/0-------0---------0-----0---------0---------0-----0--|
Gb]--4/0-0-0-0-0-0-0-0-0-0-0-0-0-0-0-0-0-0-0-0-0-0-0-0-0-0--|
B ]--4/0-0-0-0-0-0-0-0-0-0-0-0-0-0-0-0-0-0-0-0-0-0-0-0-0-0--|
PM       . . .   . . . .   . .   . . . .   . . . .   . .

Db]-------------------------------------------------------|
Ab]-------------------------------------------------------|
E ]-------------------------------------------------------|
B ]----------0---------0-----0---------0---------0-----0--|
Gb]--0-0-0-0-0-0-0-0-0-0-0-0-0-0-0-0-0-0-0-0-0-0-0-0-0-0--|
B ]--0-0-0-0-0-0-0-0-0-0-0-0-0-0-0-0-0-0-0-0-0-0-0-0-0-0--|
PM   . . . .   . . . .   . .   . . . .   . . . .   . .


Bridge Part 1:
Db]---------------------------------|
Ab]---------------------------------|
E ]--------7------------------------|
B ]--0-0-0-x-0-0-0-0-4/0-0-0-4/0-0--| x4
Gb]--0-0-0-5-0-0-0-0-4/0-0-0-4/0-0--|
B ]--0-0-0---0-0-0-0-4/0-0-0-4/0-0--|
PM   . . .   . . . .     . .     .


Bridge Part 2:
Db]--------------------------------------|
Ab]-------------9--------9--------9------|
E ]------------12-------12-------12------|
B ]---------------------------------0-0--| x3
Gb]---------------------------------0-0--|
B ]--000000000----00000----00000----0-0--|
PM   .........    .....    .....    . .

Db]-----------------------------------|
Ab]-------------9--------9------------|
E ]------------12-------12------------|
B ]-----------------------------------|
Gb]-----------------------------------|
B ]--000000000----00000----000000000--|
PM   .........    .....    .........


Bridge Part 3:
Db]--------------------------------------|
Ab]--------------------------------------|
E ]--------------------------------------|
B ]---------------------------------0-0--| x4
Gb]---------------------------------0-0--|
B ]--000000000----00000----00000----0-0--|
PM   .........    .....    .....    . .


Pre-Verse:
Db]------------------------------------|
Ab]------------------------------------|
E ]------------------------------------|
B ]------------------------------------|
Gb]------------------------------------|
B ]--5-4-0-8-5-0-5-4-0-8-5-0--0-0-0-0--|
PM                            . . . .


Verse 3:                             x2
Db]------------------------------------|
Ab]------------------------------------|
E ]------------------------------------|
B ]--5-4-0-8-5-0-5-4-0-8-5-0--0-0-0-0--|
Gb]--5-4-0-8-5-0-5-4-0-8-5-0--0-0-0-0--|
B ]--5-4-0-8-5-0-5-4-0-8-5-0--0-0-0-0--|
PM                            . . . .

Db]------------------------------------|
Ab]------------------------------------|
E ]------------------------------------|
B ]--5-4-0-8-5-0-5-4-0-8-5-0--0000000--|
Gb]--5-4-0-8-5-0-5-4-0-8-5-0--0000000--|
B ]--5-4-0-8-5-0-5-4-0-8-5-0--0000000--|
PM                            .......


Chorus:                                              x2
Db]----------------------------------------------------|
Ab]----------------------------------------------------|
E ]--11-11-11-11-11-11-11-11--12-12-12-12-12-12-12-12--|
B ]--11-11-11-11-11-11-11-11--12-12-12-12-12-12-12-12--|
Gb]---9--9--9--9--9--9--9--9--10-10-10-10-10-10-10-10--|
B ]----------------------------------------------------|

Db]----------------------------------------------------|
Ab]----------------------------------------------------|
E ]--11-11-11-11-11-11-11-11--10-10-10-10-10-10-10-10--|
B ]--11-11-11-11-11-11-11-11---x--x--x--x--x--x--x--x--|
Gb]---9--9--9--9--9--9--9--9---8--8--8--8--8--8--8--8--|
B ]----------------------------------------------------|


Chorus Part 2:
Db]-----------------------------|
Ab]-----------------------------|
E ]--10-10-10-10-10-10--12--7~--|
B ]---x--x--x--x--x--x---x--x---|
Gb]---8--8--8--8--8--8--10--5~--|
B ]-----------------------------|





Comments


Popular Eighteen Visions tabs & chords
A Long Way Home Bass Tabs
Love In Autumn Bass Tabs
Waiting For The Heavens Bass Tabs
Crushed Drum Tabs
Dead Rose Tabs
Lost In A Dream (Intro) Tabs
Our Darkest Days Intro Tabs
Raping, Laughing, Tasting, Temptation Tabs
The Psychotic Thought That Satan Gave Jesus Tabs
Tonightless Tabs


Song lyrics



↑ Back to top | Tablatures and chords are parodies/interpretations of the original songs. You may use it for private study, scholarship, research or language learning purposes only
© 2014 AZChords.com Contact us | Privacy policy | DMCA | Add/correct tabs | Request tabs | Top 50 tabs