» » »

Tower Of Snakes Bass tabs (ver.1)

Artists:  A B C D E F G H I J K L M N O P Q R S T U V W X Y Z # 

Tower Of Snakes Bass tabs (ver.1)

Eighteen Visions
Rating:
0/5 (0 votes)

Hard to play? Try these video lessons and learn fast.
                Band- Eighteen Visions
Song- Tower of Snakes

Drop B Tuning:
B G B E

Sounds best when you use an Overdrive pedal. This bass tab is a modified guitar
tab, with all the solo guitar parts left in ( in bass form of course).

E |---------------------------------|---------------------------------|
B |---------------------------------|---------------------------------|
G |---------------------------------|---------------------------------|
B |5-4-0-8-5-0-5-4-0-8-5-0--0-0-0-0-|5-4-0-8-5-0-5-4-0-8-5-0--0000000-|

E |---------------------------------|---------------------------------|
B |---------------------------------|---------------------------------|
G |---------------------------------|---------------------------------|
B |5-4-0-8-5-0-5-4-0-8-5-0--0-0-0-0-|5-4-0-8-5-0-5-4-0-8-5-0--0000000-|

E |----------------------------------|----------------------------------|
B |----------------------------------|----------------------------------|
G |----------------------------------|----------------------------------|
B |0-0-0-0-4-0-0-0-0-0-0-0-0-4/0-4/0-|0-0-0-0-4-0-0-0-0-0-0-0-0-4/0-4/0-|

E |----------------------------------|----------------------------------|
B |----------------------------------|----------------------------------|
G |----------------------------------|----------------------------------|
B |0-0-0-0-4-0-0-0-0-0-0-0-0-4/0-4/0-|0-0-0-0-4-0-0-0-0-0-0-0-0-4/0-4/0-|

E |------------------------------------------------|
B |11-11-11-11-11-11-11-11-12-12-12-12-12-12-12-12-|
G |-9--9--9--9--9--9--9--9-10-10-10-10-10-10-10-10-|
B |------------------------------------------------|

E |------------------------------------------------|
B |11-11-11-11-11-11-11-11-------------------------|
G |-9--9--9--9--9--9--9--9--8--8--8--8--8--8--8--8-|
B |------------------------------------------------|

E |------------------------------------------------|
B |11-11-11-11-11-11-11-11-12-12-12-12-12-12-12-12-|
G |-9--9--9--9--9--9--9--9-10-10-10-10-10-10-10-10-|
B |------------------------------------------------|

E |------------------------------------------------|
B |11-11-11-11-11-11-11-11-------------------------|
G |-9--9--9--9--9--9--9--9--8--8--8--8--8--8--8--8-|
B |------------------------------------------------|

E |---------------------------------|---------------------------------|
B |---------------------------------|---------------------------------|
G |---------------------------------|---------------------------------|
B |5-4-0-8-5-0-5-4-0-8-5-0--0-0-0-0-|5-4-0-8-5-0-5-4-0-8-5-0--0000000-|

E |---------------------------------|---------------------------------|
B |---------------------------------|---------------------------------|
G |---------------------------------|---------------------------------|
B |5-4-0-8-5-0-5-4-0-8-5-0--0-0-0-0-|5-4-0-8-5-0-5-4-0-8-5-0--0000000-|

E |----------------------------------|----------------------------------|
B |----------------------------------|----------------------------------|
G |----------------------------------|----------------------------------|
B |0-0-0-0-4-0-0-0-0-0-0-0-0-4/0-4/0-|0-0-0-0-4-0-0-0-0-0-0-0-0-4/0-4/0-|

E |----------------------------------|----------------------------------|
B |----------------------------------|----------------------------------|
G |----------------------------------|----------------------------------|
B |0-0-0-0-4-0-0-0-0-0-0-0-0-4/0-4/0-|0-0-0-0-4-0-0-0-0-0-0-0-0-4/0-4/0-|

E |------------------------------------------------|
B |11-11-11-11-11-11-11-11-12-12-12-12-12-12-12-12-|
G |-9--9--9--9--9--9--9--9-10-10-10-10-10-10-10-10-|
B |------------------------------------------------|

E |------------------------------------------------|
B |11-11-11-11-11-11-11-11-------------------------|
G |-9--9--9--9--9--9--9--9--8--8--8--8--8--8--8--8-|
B |------------------------------------------------|

E |------------------------------------------------|
B |11-11-11-11-11-11-11-11-12-12-12-12-12-12-12-12-|
G |-9--9--9--9--9--9--9--9-10-10-10-10-10-10-10-10-|
B |------------------------------------------------|

E |------------------------------------------------|
B |11-11-11-11-11-11-11-11-------------------------|
G |-9--9--9--9--9--9--9--9--8--8--8--8--8--8--8--8-|
B |------------------------------------------------|

E |------------------------------------------------|
B |11-11-11-11-11-11-11-11-12-12-12-12-12-12-12-12-|
G |-9--9--9--9--9--9--9--9-10-10-10-10-10-10-10-10-|
B |------------------------------------------------|

E |------------------------------------------------|
B |11-11-11-11-11-11-11-11-------------------------|
G |-9--9--9--9--9--9--9--9--8--8--8--8--8--8--8--8-|
B |------------------------------------------------|

E |------------------------------------------------|
B |11-11-11-11-11-11-11-11-12-12-12-12-12-12-12-12-|
G |-9--9--9--9--9--9--9--9-10-10-10-10-10-10-10-10-|
B |------------------------------------------------|

E |------------------------------------------------|
B |11-11-11-11-11-11-11-11-------------------------|
G |-9--9--9--9--9--9--9--9--8--8--8--8--8--8--8--8-|
B |------------------------------------------------|

E |--------------------------------|
B |--------------------------------|
G |-8--8--8--8--8--8--8--8--8-10-5-|
B |--------------------------------|

E |---------------------------------------------------|
B |---------------------------------------------------|
G |4////0-------0---------0-----0---------0---------0-|
B |4////0-0-0-0-4-0-0-0-0-4-0-0-4-0-0-0-0-4-0-0-0-0-4-|

E |----------------------------------------------------------------|
B |----------------------------------------------------------------|
G |------0---0-0-0-----0---------0-----0---------0-------0-----0-0-|
B |0-0-0-4-0-4-4-4-0-0-4-0-0-0-0-4-0-0-4-0-0-0-0-4-0-0-0-4-0-0-4-4-|

E |------7-------------------------|------7-------------------------|
B |------x-------------------------|------x-------------------------|
G |------5-------------------------|------5-------------------------|
B |0-0-0---0-0-0-0-0-4/0-0-0-4/0-0-|0-0-0---0-0-0-0-0-4/0-0-0-4/0-0-|

E |------7-------------------------|------7-------------------------|
B |------x-------------------------|------x-------------------------|
G |------5-------------------------|------5-------------------------|
B |0-0-0---0-0-0-0-0-4/0-0-0-4/0-0-|0-0-0---0-0-0-0-0-4/0-0-0-4/0-0-|

E |----------12-------12-------12-----|----------12-------12-------12-----|
B |-----------------------------------|-----------------------------------|
G |-------------------------------0-0-|-------------------------------0-0-|
B |000000000----00000----00000----0-0-|000000000----00000----00000----0-0-|

E |----------12-------12-------12-----|----------12-------12-------12-----|
B |-----------------------------------|-----------------------------------|
G |-------------------------------0-0-|-------------------------------0-0-|
B |000000000----00000----00000----0-0-|000000000----00000----00000----0-0-|

E |-----------------------------------|-----------------------------------|
B |-----------------------------------|-----------------------------------|
G |-------------------------------0-0-|-------------------------------0-0-|
B |000000000----00000----00000----0-0-|000000000----00000----00000----0-0-|

E |-----------------------------------|-----------------------------------|
B |-----------------------------------|-----------------------------------|
G |-------------------------------0-0-|-------------------------------0-0-|
B |000000000----00000----00000----0-0-|000000000----00000----00000----0-0-|

E |---------------------------------|
B |---------------------------------|
G |---------------------------------|
B |5-4-0-8-5-0-5-4-0-8-5-0--0-0-0-0-|

E |---------------------------------|---------------------------------|
B |---------------------------------|---------------------------------|
G |---------------------------------|---------------------------------|
B |5-4-0-8-5-0-5-4-0-8-5-0--0-0-0-0-|5-4-0-8-5-0-5-4-0-8-5-0--0000000-|

E |---------------------------------|---------------------------------|
B |---------------------------------|---------------------------------|
G |---------------------------------|---------------------------------|
B |5-4-0-8-5-0-5-4-0-8-5-0--0-0-0-0-|5-4-0-8-5-0-5-4-0-8-5-0--0000000-|


E |------------------------------------------------|
B |11-11-11-11-11-11-11-11-12-12-12-12-12-12-12-12-|
G |-9--9--9--9--9--9--9--9-10-10-10-10-10-10-10-10-|
B |------------------------------------------------|

E |------------------------------------------------|
B |11-11-11-11-11-11-11-11-------------------------|
G |-9--9--9--9--9--9--9--9--8--8--8--8--8--8--8--8-|
B |------------------------------------------------|

E |------------------------------------------------|
B |11-11-11-11-11-11-11-11-12-12-12-12-12-12-12-12-|
G |-9--9--9--9--9--9--9--9-10-10-10-10-10-10-10-10-|
B |------------------------------------------------|

E |------------------------------------------------|
B |11-11-11-11-11-11-11-11-------------------------|
G |-9--9--9--9--9--9--9--9--8--8--8--8--8--8--8--8-|
B |------------------------------------------------|

E |------------------------------------------------|
B |11-11-11-11-11-11-11-11-12-12-12-12-12-12-12-12-|
G |-9--9--9--9--9--9--9--9-10-10-10-10-10-10-10-10-|
B |------------------------------------------------|

E |------------------------------------------------|
B |11-11-11-11-11-11-11-11-------------------------|
G |-9--9--9--9--9--9--9--9--8--8--8--8--8--8--8--8-|
B |------------------------------------------------|

E |--------------------------------|
B |--------------------------------|
G |-8--8--8--8--8--8--8--8--8-10-5-|
B |--------------------------------|
            
Hard to play? Try these video lessons and learn fast. | Correct




comments powered by Disqus
↑ Back to top | Tablatures and chords are parodies/interpretations of the original songs. You may use it for private study, scholarship, research or language learning purposes only