>
 >
Taking You Down

Taking You Down Guitar Tabs

Egypt Central - Taking You Down chords, tabs, tablatures, lyrics

Guitar lessons | Add/correct | Request | Top 50 tabs Artists:  A B C D E F G H I J K L M N O P Q R S T U V W X Y Z 0-9

Taking You Down Guitar Tabs – Egypt Central

CD, Sheet music, Poster

Do you like Taking You Down? Share with your friends now
TabsTabs v2
This my first tab, I've been playing for almost 3 months so it might not be that 
good. It sounds right to me though. 

*=Natural Harmonic

INTRO/CHORUS
D#|--------------------------------------------------------------------------|
A#|--------------------------------------------------------------------------|
F#|-----------5--5-5--5----------------------------------5--5-5--5-----------|
C#|--2--2-2---5--5-5--5---5--5-5---9--7--5--7---2--2-2---5--5-5--5---5--5-5--|
G#|--2--2-2---3--3-3--3---5--5-5---9--7--5--7---2--2-2---3--3-3--3---5--5-5--|
C#|--2--2-2---x--x-x--x---5--5-5---9--7--5--7---2--2-2---x--x-x--x---5--5-5--|

D#|-------------------------------------------------------------------------|
A#|-------------------------------------------------------------------------|
F#|-------------------------------------------------------------------------|
C#|-------------------------------------------------------------------------|
G#|-------------------------------------------------------------------------|
C#|--10-10-10-10-9-9-7-7-9-9------------------------------------------------|
  Palm mute this whole part


D#|-------------------------------------------------------------------------|
A#|-------------------------------*5----------------------------------------|
F#|----------------------------------------------------------*5-------------|
C#|--2-x--x--x--x-x--x--2-x--x--x-----2-x--x--x--x-x-x--2--*5--*5-----------|
G#|--2-x--x--x--x-x--x--2-x--x--x-----2-x--x--x--x-x-x--2-------------------|
C#|--2-x--x--x--x-x--x--2-x--x--x-----2-x--x--x--x-x-x--2-------------------|

Now the actual verse starts
D#|------------------------ x8 There's a harmonic at the end of the 4th 
A#|------------------------ and last time through on the 5th fret 2nd 
F#|------------------------ string, then its pretty much the same but with
C#|--2--x--x--x--x-x-x--2-- more muted strings. Just listen to the song and
G#|--2--x--x--x--x-x-x--2-- you'll figure it out. Right after that is the 
C#|--2--x--x--x--x-x-x--2-- chorus x2.

D#|--------------------- x4 I think their using the wah effect. Then it goes
A#|--12----------------- back to the verse then the chorus
F#|-----14--14--14-14-14
C#|---------------------
G#|---------------------
C#|---------------------

BRIDGE X2
D#|-------------------------------------------------------------------------|
A#|-------------------------------------------------------------------------|
F#|-------------------------------------------------------------------------|
C#|--2---0---2---9--7--5--2---0---2---9--7--5---5--0--5---9--7--5--2---0---2|
G#|--2---0---2---9--7--5--2---0---2---9--7--5---5--0--5---9--7--5--2---0---2|
C#|--2---0---2---9--7--5--2---0---2---9--7--5---5--0--5---9--7--5--2---0---2|

D#|-------------------------------------------------------------------------|
A#|-------------------------------------------------------------------------|
F#|-------------------------------------------------------------------------|
C#|--5--5--/7---------------------------------------------------------------|
G#|--5--5--/7---------------------------------------------------------------|
C#|--5--5--/7---------------------------------------------------------------|

HARMONIC SOLO X8
D#|--*5----------------- Then its the chorus 4 times, then the verse part 4
A#|----*5---*5---------- times along with the wah, then it ends with  
F#|-------------*5--*5-- harmonics and the second fret barred. Thats pretty 
C#|---------------*5--*5 much it
G#|---------------------
C#|---------------------





Comments


Popular Egypt Central tabs & chords
Different Chords
Backfire 1 Tabs
Different Tabs
Enemy Inside Part 2 Tabs
Ghost Town Tabs
Kick Ass Tabs
You Make Me Sick Tabs
You Make Me Sick 2 Tabs
Different Ukulele
Home Ukulele


Song lyrics



↑ Back to top | Tablatures and chords are parodies/interpretations of the original songs. You may use it for private study, scholarship, research or language learning purposes only
© 2014 AZChords.com Contact us | Privacy policy | DMCA | Add/correct tabs | Request tabs | Top 50 tabs