>
 >
Taking You Down 1

Taking You Down 1 Guitar Tabs

Egypt Central - Taking You Down 1 chords, tabs, tablatures, lyrics

Guitar lessons | Add/correct | Request | Top 50 tabs Artists:  A B C D E F G H I J K L M N O P Q R S T U V W X Y Z 0-9

Taking You Down 1 Guitar Tabs – Egypt Central

CD, Sheet music, Poster

Do you like Taking You Down 1? Share with your friends now
TabsTabs v2
This is Taking you down by Egypt Central.
Drop D tuning. 2 Guitars.

1st: E
2nd: B
3rd: G
4th: D
5th: A
6th: D

 Intro(probably some effects, to make quieter,listen for rythme)Guitar 1:
|--part-a-----------------------------------------------------------------|
|-------------------------------------------------------------------------|
|-7--9--7---12\11\10\9/12--7--9--7--12\11\10\9/12-------------------------|
|-7--9--7---12\11\10\9/12--7--9--7--12\11\10\9/12-------------------------|
|-5--7--5---10\9-\8-\7/10--5--7--5--10\9-\8-\7/10-------------------------|
|-------------------------------------------------------------------------|
  4x 5x 4x  2x 2x 2x 2x 1x 4x 5x 4x 2x 2x 2x 2x 1x
I have had enough...

 Intro,Guitar 2:
|-play-part-a---|---------------------------------------------------------|
|-but-finish----|---------------------------------------------------------|
|-with-this-----|---------------------------------------------------------|
|-12\11\10\9/12-|---------------------------------------------------------|
|-12\11\10\9/12-|---------------------------------------------------------|
|-10\9-\9-\7/10-|---------------------------------------------------------|
  2x 2x 2x 2x 1x

 Intro/Corus,2x:
|-----------------------------------------------------------------------|
|--9-9-7-7-7-7-9-9-12-12-12-12------------------------------------------|
|-----------------------------------------------------------------------|
|-----------------------------------------------------------------------|
|-----------------------------------------------------------------------|
|-----------------------------------------------------------------------|
taking you dooowwwnnn....(screaming)

 Intro/Corus(while hes screaming)Guitar 2,2x:
|-------------------------------------------------------------------------|
|-------------------------------------------------------------------------|
|-------------------------------------------------------------------------|
|-7--9--7--12\11\10\9/12--------------------------------------------------|
|-7--9--7--12\11\10\9/12--------------------------------------------------|
|-5--7--5--10\9-\8-\7/10--------------------------------------------------|
  4x 5x 4x 2x 2x 2x 2x 1x
taking you dooowwwnnnn....

 Verse,both guitars:
|---------------------|-------------------|------------------|------------|
|-part-b--------------|---part-c----------|--part-d----------|------------|
|-------------------10|---------------10-8|------------------|------------|
|-5-xx-xxx-5-xx-x-8---|5-xx-xxx-5-x-8-----|-5-xx-xxx-5-xx-xxx|------------|
|-5-xx-xxx-3-xx-x-----|5-xx-xxx-5-x-------|-5-xx-xxx-5-xx-xxx|------------|
|-3-xx-xxx-3-xx-x-----|3-xx-xxx-3-x-------|-3-xx-xxx-3-xx-xxx|------------|
                                            youve been...
play part b then part c...play part d then part b then part d twice then to the pre 
part b,part c and part c..

 Pre corus,Guitar 1:
|-----------------------------------------------------------------------|
|-12\11\10\9/12\11\10\9/12----------------------------------------------|
|-----------------------------------------------------------------------|
|-----------------------------------------------------------------------|
|-----------------------------------------------------------------------|
|-----------------------------------------------------------------------|
 12x 2x 2x 4x 12x 2x 2x 4x 2x
 I'll make you know...(deeper voice)

 Precorus:
 G2   part d of the verse,2x
 Corus:
 G1   4x
 G2   4x

 Ending Corus or PreVerse,Guitar 1:
|-----------------------------------------------------------------------|
|-10-10-8-8-8-8------10-10-8-8-8-8--------------------------------------|
|-----------------10-----------------10-8-------------------------------|
|---------------8------------------8------------------------------------|
|-----------------------------------------------------------------------|
|-----------------------------------------------------------------------|
 taking you down...(screaming)
 Guitar 2 plays part b and c for the ending corus.

 For Guitar 1 on the second verse, play the pre corus twice.
 For Guitar 2 on the second verse, play part d,b,d, then b.

 Precorus:
 G1   1x
 G2   part d twice
 Corus:
 G1   4x
 G2   4x

 Break, Both Guitars,2x:
|-----------------------------------------------------------------------|
|-----------------------------------------------------------------------|
|-----------------------------------------------------------------------|
|-7-x-7-12-11-9-7-x-7-12-11-9-x-9-12-11-9-9-x-9-------------------------|
|-7-x-7-12-11-9-7-x-7-12-11-9-x-9-12-12-9-9-x-9-------------------------|
|-5-x-5-10-9--7-5-x-5-------7-x-7-10------7-x-9-------------------------|
 taking you dooowwwnnn...(screaming)

 Bridge,Guitar 1,lightly pick it(might have effects,maybe)2x,
|-----------------------------------------------------------------------|
|-/15-12-12\7-7/12-/15--------------------------------------------------|
|-----------------------------------------------------------------------|
|-----------------------------------------------------------------------|
|-----------------------------------------------------------------------|
|-----------------------------------------------------------------------|

 Bridge,Guitar 2,8x
|-10--------------------------------------------------------------------|
|----8-7----------------------------------------------------------------|
|--------10-8-10-8------------------------------------------------------|
|-----------------------------------------------------------------------|
|-----------------------------------------------------------------------|
|-----------------------------------------------------------------------|

 Corus:
 G1   8x
 G2   8x

 Outro,Guitar 1:
|-----------------------------------------------------------------------|
|-10/--8-8-8-8--10/--8-8-8-8-10/--8-8-8-8-10/---------------------------|
|-----------------------------------------------10-8\-------------------|
|---------------------------------------------8-------------------------|
|-----------------------------------------------------------------------|
|-----------------------------------------------------------------------|
 taking you dooowwwnnn...(screaming)

 G2  part d 3 times, 4th time is part c.

 Legend:
 slide up     /
 slide down   \
 mute note    x
 G1,G2,BG     Guitar 1,Guitar 2,Both Guitars

 Song Order:
 Intro         1x(BG)
 Intro/Corus   2x(BG)
 Verse         part c,part b, then play part d twice(BG)
 Precorus      G1:1x,G2:part d,2x
 Corus         G1:4x,G2:4x
 Ending corus or
 Preverse      G1:1x,G2:part b and c
 2nd Verse     G1:Precorus twice,G2:part d,b,d,b
 Precorus      G1:1x,G2:part d twice
 Corus         G1:4x,G2:4x
 Break         2x(BG)
 Bridge        G1:2x,G2:8x
 Corus         G1:8x,G2:8x
 Outro         G1:1x,G2:part d 3 times, part c on the 4th time

Intro:
Iíve had enough of, I'm taking you down
Taking you down
Verse:
Youíve been all up in my face
Out of line and out of place
Blurring views, distorting facts, every time I turn my back
Precorus:
Iíll make you know your position
Donít talk, just shut up and listen
No way out, now you canít play dumb
Get up get up and come get some

Chorus:
Iíve had enough of, Iím taking you down
Taking you down
Iíve had enough of, Iím taking you down
Taking you down
2nd Verse:
I feel the hate that you breed
Itís the fix that feeds your greed
Set your bait, set your trap
Take a seat and watch me snap

Iíll shake the ground that you stand on
Iíll still be here when youíre long gone
This world is mine you canít have it
It's my turn, to burn and wreak havok

(Chorus)

Break:
Down, down Iíll take you down
Down Iíll take you down down
Iíll take you down
Bridge:
Go get'em, go go-go-go get some
Go get'em, go go-go-go get some
Go get'em, go go-go-go get some
Go Get'Em

(Chorus)
Outro:
Down, down Iíll take you down
Down Iíll take you down down
Iíll take you down

Please no nasty comments, be nice.





Comments


Popular Egypt Central tabs & chords
Home 1 Chords
Backfire 1 Tabs
Backfire 2 Tabs
Different Tabs
Enemy Inside Part 2 Tabs
Taking You Down Tabs
White Rabbit Tabs
You Make Me Sick Tabs
You Make Me Sick 1 Tabs
You Make Me Sick 2 Tabs


Song lyrics



↑ Back to top | Tablatures and chords are parodies/interpretations of the original songs. You may use it for private study, scholarship, research or language learning purposes only
© 2014 AZChords.com Contact us | Privacy policy | DMCA | Add/correct tabs | Request tabs | Top 50 tabs