» » »

Never Met A Girl Like You Before Tabs (ver.2)

Artists:  A B C D E F G H I J K L M N O P Q R S T U V W X Y Z # 

Never Met A Girl Like You Before Tabs (ver.2)

Edwyn Collins
Rating:
0/5 (0 votes)

Hard to play? Try these video lessons and learn fast.
                I never met a girl like you b4 - edwyn collins
100% correct
standard tuning

b = bend 1.5

e|-----------------------------------------------------|
B|-------------------------------------------11--------|
G|-----------10--10b-----------------------------12----|
D|--10--13------------13--10-------10--13--------------|
A|-----------------------------------------------------|
E|-----------------------------------------------------|


E|------------------------------------------------------|
B|------------------------------------------------------|
G|----------10--10b-------------------------------------|
D|--10--13------------13--10------10--12----------------|
A|-----------------------------------------13--10-------|
E|------------------------------------------------------|

that is the main part that evry1 knos nd luvs...l8ers \m/
            
Hard to play? Try these video lessons and learn fast. | Correct




comments powered by Disqus
↑ Back to top | Tablatures and chords are parodies/interpretations of the original songs. You may use it for private study, scholarship, research or language learning purposes only