» » »

Never Met A Girl Like You Before Bass tabs (ver.1)

Artists:  A B C D E F G H I J K L M N O P Q R S T U V W X Y Z # 

Never Met A Girl Like You Before Bass tabs (ver.1)

Edwyn Collins
Rating:
0/5 (0 votes)

Hard to play? Try these video lessons and learn fast.
                This is kind of my interpretation of the song... On bass!
It's gonna sound a little guitar like but i thought i might post it anyway:

I've never known a girl like you before...
G|--------------------------------------------------------------------------|
D|--10--8--6--5--3--8--5----------------------------------------------------|
A|--------------------------------------------------------------------------|
E|--------------------------------------------------------------------------|

[Guitar riff part]
G|-------8--10--10b--8----------8--15--12-----------------------------------|
D|---10-----------------10--10----------------------------------------------|
A|--------------------------------------------------------------------------|
E|--------------------------------------------------------------------------|

G|-------8--10--10b--8------------------------------------------------------|
D|---10-----------------10--10--12--8--10-----------------------------------|
A|--------------------------------------------------------------------------|
E|--------------------------------------------------------------------------|

And that pretty much goes on the entire song :)
            
Hard to play? Try these video lessons and learn fast. | Correct




comments powered by Disqus
↑ Back to top | Tablatures and chords are parodies/interpretations of the original songs. You may use it for private study, scholarship, research or language learning purposes only