» » »

Smokers Outside The Hospital Doors Tabs (ver.2)

Artists:  A B C D E F G H I J K L M N O P Q R S T U V W X Y Z # 

Smokers Outside The Hospital Doors Tabs (ver.2)

Editors
Rating:
0/5 (0 votes)

Hard to play? Try these video lessons and learn fast.
                This is great song by a great great band
I've only tabbed Chris's parts (lead) in this, as Tom plays mostly piano and the 
existing tab isnt comletely accurate in mt opinion, this one should be though....

Intro - Tremolo Picking
e|-15~~~~~~~~~~~~17~~~15~~~~~~~~~~~~17~~~|
B|---------------------------------------|
G|---------------------------------------|
D|---------------------------------------|
A|---------------------------------------|
E|---------------------------------------|However many times is needed

Verse
e|-----------------------------|
B|3~--3/12---5~---3~--3/12--5~-|
G|-----------------------------|
D|-----------------------------|
A|-----------------------------|
E|-----------------------------|

Pre-Chorus
e|-------------|-finish on this last time----|
B|7~--8~---13~-|-8~--------------------------|
G|-------------|-----------------------------|
D|-------------|-----------------------------|
A|-------------|-----------------------------|
E|-------------|-----------------------------|

Chorus
e|15-15-17-19-15-19-15-10---8-7---|
B|------------------------8-----8-|
G|--------------------------------|
D|--------------------------------|
A|--------------------------------|
E|--------------------------------|

Bridge is the same as the intro

And that is all :D
Please rate and comment
            
Hard to play? Try these video lessons and learn fast. | Correct




comments powered by Disqus
↑ Back to top | Tablatures and chords are parodies/interpretations of the original songs. You may use it for private study, scholarship, research or language learning purposes only