» » »

Editors, Papillon Tabs (ver.2)

Artists:  A B C D E F G H I J K L M N O P Q R S T U V W X Y Z # 

Papillon Tabs (ver.2)

Editors Tabs
Rating:
0/5 (0 votes)
Papillon lessons Tabs too difficult? Try these video lessons and learn fast
                Hi, the song is mostly synth, but I wanted to play it with my band so I figured it 
out on the guitar.

Intro (stays almost the whole song)
e-----------7--------7--------|-----------7--------5--------|
B---5-5--8-------5-5----8-----|--------8-------------7------|
G-----------------------------|---7-7----------7-7----------|
D-----------------------------|-----------------------------|
A-----------------------------|-----------------------------|
E-----------------------------|-----------------------------|

During chorus the intro stops playing and you hear this instead:
e|----------------------------|
B|--0-3-3---5---8-7-5-3-------|
G|--------0-------------------|
D|----------------------------|
A|----------------------------|
E|----------------------------|

And during the chorus you hear this overlapping the intro synth line:
e|--10--7---------------------|
B|---------------10--7--------|
G|----------------------------|
D|----------------------------|
A|----------------------------|
E|----------------------------|

And that's it, hope it helped you.
            
Submit corrections

comments powered by Disqus
↑ Back to top | Editors Tabs for Papillon. Lyrics for acoustic guitar and electric guitar. Tablatures and chords are parodies/interpretations of the original songs. You may use it for private study, scholarship, research or language learning purposes only