» » »

Editors, Munich Tabs (ver.1)

Artists:  A B C D E F G H I J K L M N O P Q R S T U V W X Y Z # 

Munich Tabs (ver.1)

Editors Tabs
 Rating:
4/5 (4 votes)
Munich lessons Tabs too difficult? Try these video lessons and learn fast
1
                Editors - Munich

Standard Tuning

Intro:

e|-10-10-10-----------------------------------|
B|----------11-11-11-8-8-8----------8-8-11-11-|
G|-------------------------10-10-10-----------| x 4
D|--------------------------------------------|
A|-------------------------------- -----------|
E|--------------------------------------------|

e|-10-x8-------13-x8------------|
B|-------11-x8-------11-x4-8-x4-|
G|------------------------------| X 2
D|------------------------------|
A|------------------------------|
E|------------------------------|

Verse: 

e|-1010-1010-1010-1010-1010-1010-1010-1010-|
B|-1111-1111-1111-1111-1111-1111-1111-1111-|
G|-1212-1212-1212-1212-1010-1010-1010-1010-| x 4
D|-1212-1212-1212-1212-1212-1212-1212-1212-|
A|-1010-1010-1010-1010-1212-1010-1010-1010-|
E|-----------------------------------------|

e|-10-x8-------13-x8------------|
B|-------11-x8-------11-x4-8-x4-|
G|------------------------------| X 2
D|------------------------------|
A|------------------------------|
E|------------------------------|

e|-1010-1010-1010-1010-1010-1010-1010-1010-|
B|-1111-1111-1111-1111-1111-1111-1111-1111-|
G|-1212-1212-1212-1212-1010-1010-1010-1010-| x 4
D|-1212-1212-1212-1212-1212-1212-1212-1212-|
A|-1010-1010-1010-1010-1212-1010-1010-1010-|
E|-----------------------------------------|

Chorus:

e|-8-x8-11-x8-15-x8--18-x2-15-x2-11-x2-|
B|-------------------------------------|
G|-------------------------------------| x 4
D|-------------------------------------|
A|-------------------------------------|
E|-------------------------------------|

Post Chorus:
 
e|-10-x8-------13-x8------------|
B|-------11-x8-------11-x4-8-x4-|
G|------------------------------| X 2
D|------------------------------|
A|------------------------------|
E|------------------------------|

2nd Verse: 

e|-1010-1010-1010-1010-1010-1010-1010-1010-|
B|-1111-1111-1111-1111-1111-1111-1111-1111-|
G|-1212-1212-1212-1212-1010-1010-1010-1010-| x 4
D|-1212-1212-1212-1212-1212-1212-1212-1212-|
A|-1010-1010-1010-1010-1212-1010-1010-1010-|
E|-----------------------------------------|

e|-10-x8-------13-x8------------|
B|-------11-x8-------11-x4-8-x4-|
G|------------------------------| X 2
D|------------------------------|
A|------------------------------|
E|------------------------------|

e|-1010-1010-1010-1010-1010-1010-1010-1010-|
B|-1111-1111-1111-1111-1111-1111-1111-1111-|
G|-1212-1212-1212-1212-1010-1010-1010-1010-| x 4
D|-1212-1212-1212-1212-1212-1212-1212-1212-|
A|-1010-1010-1010-1010-1212-1010-1010-1010-|
E|-----------------------------------------|


Chorus:

e|-8-x8-11-x8-15-x8--18-x2-15-x2-11-x2-|
B|-------------------------------------|
G|-------------------------------------| x 4  
D|-------------------------------------|
A|-------------------------------------|
E|-------------------------------------|

Break:

e|-1010-1010-1010-1010-1010-1010-1010-1010-|
B|-1111-1111-1111-1111-1111-1111-1111-1111-|
G|-1212-1212-1212-1212-1010-1010-1010-1010-| x 4
D|-1212-1212-1212-1212-1212-1212-1212-1212-|
A|-1010-1010-1010-1010-1212-1010-1010-1010-|
E|-----------------------------------------|

e|-10-10-10-----------------------------------|
B|----------11-11-11-8-8-8----------8-8-11-11-|
G|-------------------------10-10-10-----------| x 8
D|--------------------------------------------|
A|--------------------------------------------|
E|--------------------------------------------|

Chorus:

e|-8-x8-11-x8-15-x8--18-x2-15-x2-11-x2-|
B|-------------------------------------|
G|-------------------------------------| x 4  
D|-------------------------------------|
A|-------------------------------------|
E|-------------------------------------|

e|-10-10-10-----------------------------------|
B|----------11-11-11-8-8-8----------8-8-11-11-|
G|-------------------------10-10-10-----------| x 8
D|--------------------------------------------|
A|--------------------------------------------|
E|--------------------------------------------|

Finishing On:

e|-10-|
B|-11-|
G|-12-|
D|-12-|
A|-10-|
E|----|
| /  slide up
| \  slide down
| h  hammer-on
| p  pull-off
| ~  vibrato
| +  harmonic
| x  Mute note
            
Submit corrections

comments powered by Disqus
↑ Back to top | Editors Tabs for Munich. Lyrics for acoustic guitar and electric guitar. 1 Tablatures and chords are parodies/interpretations of the original songs. You may use it for private study, scholarship, research or language learning purposes only