» » »

Editors, Fall Bass tabs (ver.1)

Artists:  A B C D E F G H I J K L M N O P Q R S T U V W X Y Z # 

Fall Bass tabs (ver.1)

Editors Tabs
 Rating:
4/5 (7 votes)
Fall lessons Tabs too difficult? Try these video lessons and learn fast
                Editors - Fall, from the album The Back Room

Intro (Hold both notes as you play them, do the same throughout the song)
G|-------------------------------------|
D|--5-5-5-5-5-5-5-5/--9-9-9-9-9-9-9-9\-| X3
A|-3-3-3-3-3-3-3-3---7-7-7-7-7-7-7-7---|
E|-------------------------------------|

Verse
G|-------------------------------------|
D|--5-5-5-5-5-5-5-5/--9-9-9-9-9-9-9-9\-| X4
A|-3-3-3-3-3-3-3-3---7-7-7-7-7-7-7-7---|
E|-------------------------------------|

Chorus
G|--9-9-9-9--------------------------|
D|-------------------5-5-5-5-5-5-5-5-| X2
A|-7-7-7-7--5-5-5-5-3-3-3-3-3-3-3-3--|
E|---------3-3-3-3-------------------|

Post Chorus
G|--9-9-9-9------------|
D|---------------------|
A|-7-7-7-7--5-5-5-5-3~-|
E|---------3-3-3-3-----|

Verse
G|-------------------------------------|
D|--5-5-5-5-5-5-5-5/--9-9-9-9-9-9-9-9\-| X5
A|-3-3-3-3-3-3-3-3---7-7-7-7-7-7-7-7---|
E|-------------------------------------|

Chorus
G|--9-9-9-9--------------------------|
D|-------------------5-5-5-5-5-5-5-5-| X2
A|-7-7-7-7--5-5-5-5-3-3-3-3-3-3-3-3--|
E|---------3-3-3-3-------------------|

Post Chorus
G|--9-9-9-9------------|
D|---------------------|
A|-7-7-7-7--5-5-5-5-3~-|
E|---------3-3-3-3-----|

Rest

Outro (3.21)
G|--9-9-9-9--------------------------|
D|-------------------5-5-5-5-5-5-5-5-| X6
A|-7-7-7-7--5-5-5-5-3-3-3-3-3-3-3-3--|
E|---------3-3-3-3-------------------|

G|-----------------------5----5--------|
D|-------------------------------------| X3
A|-77777777----------3333-333--3332255-|
E|----------33333333-------------------|

G|----------------------|
D|----------------------|
A|-77777777----------3~-|
E|----------33333333----|

/ - Slide Upwards
\ - Slide Downwards
~ - Hold Note

That’s what I think it goes like.

Adam Vaughan
            
Submit corrections

comments powered by Disqus
↑ Back to top | Editors Bass for Fall. Lyrics for acoustic guitar and electric guitar. Tablatures and chords are parodies/interpretations of the original songs. You may use it for private study, scholarship, research or language learning purposes only