» » »

Dust In The Sunlight Tabs (ver.1)

Artists:  A B C D E F G H I J K L M N O P Q R S T U V W X Y Z # 

Dust In The Sunlight Tabs (ver.1)

Editors
Rating:
5/5 (1 vote)

Hard to play? Try these video lessons and learn fast.
                (Intro)
e-0-0-0-0-0-0----------------------------------------------------|
b-------------2-1-0-----2-0--------------------------------------|
g-------------------0-1-----1------------------------------------| X2
d-----------------------------2---1-1-1-1-1-1-1-1----------------|
a---------------------------------2-2-2-2-2-2-2-2-4-4-4-4-4-4-4-4|
e-------------------------------------------------5-5-5-5-5-5-5-5|


e-9-7--------5-2--------4-0|
b--------------------------|
g--------------------------|
d--------------------------| 
a--------------------------|
e--------------------------|

This is all vaguely correct, great sound from a very good band. Enjoy!
I'm yet to work out the chords!
T Smedley
            
Hard to play? Try these video lessons and learn fast. | Correct




comments powered by Disqus
↑ Back to top | Tablatures and chords are parodies/interpretations of the original songs. You may use it for private study, scholarship, research or language learning purposes only