» » »

Edison Glass, Dear Honesty Tabs (ver.2)

Artists:  A B C D E F G H I J K L M N O P Q R S T U V W X Y Z # 

Dear Honesty Tabs (ver.2)

Edison Glass Tabs
 Rating:
4.3/5 (6 votes)
Dear Honesty lessons Tabs too difficult? Try these video lessons and learn fast
1
                (Intro)
this is the intro to Dear Honesty
the very beginning is repeated a lot
Edison Glass plays this song one half step down

THOSE ONES ARE ACTUALLY 11'S

Eb---------------------------------------------------------------|
Bb---------------------------------------------------------------|
Gb-11111111111111111111111111111111111111111111111111111111111111
Db----------------------------------99999999999999999999999999999-|
Ab----------------------------------------------------------------|
Eb----------------------------------------------------------------|

-----------------------------------------------------------------
-1010101010101010101010101010101010101010101010101010101010101010
-1111111111111111111111111111111111111111111111111111111111111111
-9999999999999999999999999999999999999999999999999999999999999999
-----------------------------------------------------------------|
-----------------------------------------------------------------|

Guitar 2 comes in a little bit later like this
-1414141414141414121212121212121210101010101010109999977 -9h10p9
-------------------------------------------------------- -|
-------------------------------------------------------- -|
-------------------------------------------------------- -|
-------------------------------------------------------- -|
-------------------------------------------------------- -|

then

----------------------------------------------|
---------------------14-1414-14-14-14-14-1414-|
---------------------11-1111-11-11-11-11-1111-|
---4p0-2p0------------------------------------|
--2--------4p0---4----------------------------|
-3-------------35-00--------------------------|


---------------------------------|
---------------------12-12-12-12-|
---------------------11-11-11-11-|
----4p0-2p0----------9--9--9--9--|
--2--------4p0---4---------------|
-3-------------35-00-------------|

reapeat the whole section after where I typed then twice then the verse starts

more coming soon

If one of you guys from Edison Glass checks this out
you guys rocked at creation
thanks for coming to our tent (the yellow and white one with spiderman) and hanging out
and thanks for playing at our church last year when creation got canceled

ponchoman
            
Submit corrections

comments powered by Disqus
↑ Back to top | Edison Glass Tabs for Dear Honesty. Lyrics for acoustic guitar and electric guitar. 1 Tablatures and chords are parodies/interpretations of the original songs. You may use it for private study, scholarship, research or language learning purposes only