» » »

Edison Glass, Dear Honesty Tabs (ver.1)

Artists:  A B C D E F G H I J K L M N O P Q R S T U V W X Y Z # 

Dear Honesty Tabs (ver.1)

Edison Glass Tabs
 Rating:
4.2/5 (5 votes)
Dear Honesty lessons Tabs too difficult? Try these video lessons and learn fast
                Guitar Half step down
Tuning:
Eb
Bb
Gb
Db
Ab
Eb
Intro:0:00
Eb-----------------------------------------------------------|
Bb-----------------------------------------------------------|
Gb-11-11-11-11-11-11-11-11(4x)---11-11-11-11-11-11-11-11(4x)-|
Db-------------------------------9--9--9--9--9--9--9--9-(4x)-|
Ab-----------------------------------------------------------|
Eb-----------------------------------------------------------|
                                            
------------------------------------------------------|
-10-10-10-10-10-10-10-10-10-10-10-10-10-10-10-10(12x)-|
-11-11-11-11-11-11-11-11-11-11-11-11-11-11-11-11(12x)-|
-9--9--9--9--9--9--9--9--9--9--9--9--9--9--9--9-(12x)-|
------------------------------------------------------|
------------------------------------------------------|

Guitar 2 comes in at 0:11
 (8x)             (8x)             (8x)             (5x)  (3x)
-1414141414141414-1212121212121212-1010101010101010-99999-777(4x)-|
------------------------------------------------------------------|
------------------------------------------------------------------|
------------------------------------------------------------------|
------------------------------------------------------------------|
------------------------------------------------------------------|

(0:32) (8x)       (8x)              (8x)            (5x)     (0:42) 
-1414141414141414-1212121212121212-1010101010101010-99999(2x)|-9b-|
-0-0-0-0-0-0-0-0--0-0-0-0-0-0-0-0--0-0-0-0-0-0-0-0--00000----|----|
-------------------------------------------------------------|----|
-------------------------------------------------------------|----|
-------------------------------------------------------------|----|
-------------------------------------------------------------|----|

(0:43) and at (0:53)
----------------------------------------------|
---------------------14-1414-14-14-14-14-1414-|
---------------------11-1111-11-11-11-11-1111-|
---4p0-2p0------------------------------------|
--2--------4p0---4----------------------------|
-3-------------35-00--------------------------|

(0:48) and at (0:59)
---------------------------------|
---------------------12-12-12-12-|
---------------------11-11-11-11-|
----4p0-2p0----------9--9--9--9--|
--2--------4p0---4---------------|
-3-------------35-00-------------|

I do not know what the lead guitarist is playing cause its
way to complicated but this is the rhythm guitarist

Verse
(1:05)
-------9--9--9--9--9----10-10-10-10-10---14-14-14-14-14-|
-10----10-10-10-10-10---12-12-12-12-12---15-15-15-15-15-|
-11-----------------------------------------------------|
-9------------------------------------------------------|
--------------------------------------------------------|
--------------------------------------------------------|

(1:10)
-5-5-5-5-5---3-3-3-3-3---2-2-2-2-2---0-0-0-0-0-|
-7-7-7-7-7---5-5-5-5-5---3-3-3-3-3---2-2-2-2-2-|
-----------------------------------------------|
-----------------------------------------------|
-----------------------------------------------|
-----------------------------------------------|

(1:16)
-7-7-7-7-7---9--9--9--9--9---10-10-10-10-10-14-14-14-14-14-|
-7-7-7-7-7---10-10-10-10-10--12-12-12-12-12-14-14-14-14-14-|
-----------------------------------------------------------|
-----------------------------------------------------------|
-----------------------------------------------------------|
-----------------------------------------------------------|

(1:21)
-14-14-14-14-14-14-14-14-14-14-12-12-12-12-12-12-12-12-12-12-|
-15-15-15-15-15-15-15-15-15-15-14-14-14-14-14-14-14-14-14-14-|
-------------------------------------------------------------|
-------------------------------------------------------------|
-------------------------------------------------------------|
-------------------------------------------------------------|

(1:27)                                                      (1:36)
-7-7-7---7-7-7---7-x-7-7---7-x-7-7---7-x-7-7---7-x-7-7-|---5-5-5-5-5-|
-7-7-7---7-7-7---7-x-7-7---7-x-7-7---7-x-7-7---7-x-7-7-|-------------|
-------------------------------------------------------|-------------|
-------------------------------------------------------|-------------|
-------------------------------------------------------|-------------|
-------------------------------------------------------|-------------|

Chorus
(1:38)
----------------------------------------------|
---------------------14-1414-14-14-14-14-1414-|
---------------------11-1111-11-11-11-11-1111-|
---4p0-2p0------------------------------------|
--2--------4p0---4----------------------------|
-3-------------35-00--------------------------|

(1:43)
-----------------------------|
-----------------------------|
-----------7-7-7-7-----------|
-5-5-5-5---7-7-7-7---2-2-2-2-|
-5-5-5-5---5-5-5-5---2-2-2-2-|
-3-3-3-3-------------0-0-0-0-|

(1:49)
----------------------------------------------|
---------------------14-1414-14-14-14-14-1414-|
---------------------11-1111-11-11-11-11-1111-|
---4p0-2p0------------------------------------|
--2--------4p0---4----------------------------|
-3-------------35-00--------------------------|

(1:55)
-----------------------------|
-----------------------------|
-----------7-7-7-7-----------|
-5-5-5-5---7-7-7-7---2-2-2-2-|
-5-5-5-5---5-5-5-5---2-2-2-2-|
-3-3-3-3-------------0-0-0-0-|

Going into verse
(1:59)
-------------------------------------------2-0-------|
-----------------------------------3-----3-----3-2-0-|
-----4-2-------------------------4---2-4-------------|
---4-----4-----4-2-0-----------4---------------------|
-2---------4-5-------4-0-2---2-----------------------|
-----------------------------------------------------|

Verse
(2:11)
-7-7-7-xxxx--9--9--9--9-xxxx-10-10-10-10-xxxx-14-14-14-14-xxxx(2x)-|
-7-7-7-xxxx-10-10-10-10-xxxx-12-12-12-12-xxxx-15-15-15-15-xxxx-----|
-------------------------------------------------------------------|
-------------------------------------------------------------------|
-------------------------------------------------------------------|
-------------------------------------------------------------------|

(2:33)                                         (2:36)
-14-14-14-14--141414---14-14-14-14--141414---|--55555|
-15-15-15-15--151515---15-15-15-15--151515---|-------|
---------------------------------------------|-------|
---------------------------------------------|-------|
---------------------------------------------|-------|
---------------------------------------------|-------|

Chorus
(2:37)
----------------------------------------------|
---------------------14-1414-14-14-14-14-1414-|
---------------------11-1111-11-11-11-11-1111-|
---4p0-2p0------------------------------------|
--2--------4p0---4----------------------------|
-3-------------35-00--------------------------|

(2:43)
-----------------------------|
-----------------------------|
-----------7-7-7-7-----------|
-5-5-5-5---7-7-7-7---2-2-2-2-|
-5-5-5-5---5-5-5-5---2-2-2-2-|
-3-3-3-3-------------0-0-0-0-|

(2:48)
----------------------------------------------|
---------------------14-1414-14-14-14-14-1414-|
---------------------11-1111-11-11-11-11-1111-|
---4p0-2p0------------------------------------|
--2--------4p0---4----------------------------|
-3-------------35-00--------------------------|

(2:54)
-----------------------------|
-----------------------------|
-----------7-7-7-7-----------|
-5-5-5-5---7-7-7-7---2-2-2-2-|
-5-5-5-5---5-5-5-5---2-2-2-2-|
-3-3-3-3-------------0-0-0-0-|

Bridge
(3:00)
--------------------------------------|
--------------------------------------|
--------------------------------------|
-5---4s2s4-5---7s4p0-2---2p0h2-2---4b-|
-5---------5---------2---------2------|
-3---------3---------0---------0------|

(3:23)                       (3:26)
-----------------------------|-----|
-----------------------------|--12-|
-11-11-11-11-11-11-11-11-(2x)|--11-|(6x)
-9--9--9--9--9--9--9--9------|--9--|
-----------------------------|-----|
-----------------------------|-----|

Outro
(3:43)and at (3:55)
----------------------------------------------|
---------------------14-1414-14-14-14-14-1414-|
---------------------11-1111-11-11-11-11-1111-|
---4p0-2p0------------------------------------|
--2--------4p0---4----------------------------|
-3-------------35-00--------------------------|

(3:48) and at (3:59)              (4:03-4:05)
---------------------------------|-----------|
---------------------12-12-12-12-|---12---12-|
---------------------11-11-11-11-|---11---11-|
----4p0-2p0----------9--9--9--9--|---9----9--|
--2--------4p0---4---------------|-----------|
-3-------------35-00-------------|-----------|

Please Rate
            
Submit corrections

comments powered by Disqus
↑ Back to top | Edison Glass Tabs for Dear Honesty. Lyrics for acoustic guitar and electric guitar. Tablatures and chords are parodies/interpretations of the original songs. You may use it for private study, scholarship, research or language learning purposes only