>
 >
Vain Glory Opera 1

Vain Glory Opera 1 Guitar Tabs

Edguy - Vain Glory Opera 1 chords, tabs, tablatures, lyrics

Guitar lessons | Add/correct | Request | Top 50 tabs Artists:  A B C D E F G H I J K L M N O P Q R S T U V W X Y Z 0-9

Vain Glory Opera 1 Guitar Tabs – Edguy

CD, Sheet music, Poster

Do you like Vain Glory Opera 1? Share with your friends now
Bass TabsTabsTabs v2

Tune down 1/2 step


KEYBOAR INTRO:

Guitars enter therd time:
This is also Verse:
Eb-----------------------------------------------------------------
Bb-----------------------------------------------------------------
Gb-------8------10-----3------3------------------------------------
Db--5----8------10-----3------3----[3]*----------------------------
Ab--3----6x8----8x8----1x8----5x8--[3]-----------------------------
Eb--3x8----------------------------[1]-----------------------------
  [P.M******************************************************]
*The last chord you play on the verse*


AFTER EVERY LAST VERSE:
Eb--------------
Bb--------------
Gb---5----------
Db---5----5-----
Ab---3----5-----
Eb--------3-----


BRIDGE:
Eb-------------------------------------------------------------------
Bb-------------------------------------------------------------------
Gb-----------------------------------------------33333---------------
Db---5-----3-----5-----6-----5-3-5----6666666----33333---------------
Ab---3-3-3-3-3-3-3-3-3-3-3-3-3-3-5----6666666----11111---------------
Eb------------------------------------4444444------------------------

CHORUS:
Eb-------------------------------------------------------------------
Bb-------------------------------------------------------------------
Gb---5---------3---------3-----5------------3------------------------
Db---5----3----3----6----3-----5-----6------3------------------------
Ab---3----3----1----4----1-----3-----6------1------------------------
Eb--------1---------4----------------4-------------------------------
                                                                   x2
Keyboard enter again...
Guitar plays like:

Eb--------------------------------------------------------------------
Bb--------------------------------------------------------------------
Gb---3---------3-----12----10-----------------------------------------
Db---3----6----3-----12----10-----------------------------------------
Ab---5----6----1-----10----8------------------------------------------
Eb--------4-----------------------------------------------------------


GUITAR SOLO TAPPING:
Eb-h15p11p8----h15p10p6----h15p11p8----h16p11p8----h16p10p8----h16p11p8-
Bb----------------------------------------------------------------------
Gb----------------------------------------------------------------------
Db----------------------------------------------------------------------
Ab----------------------------------------------------------------------
Eb----------------------------------------------------------------------

Eb-h18p13p10----h18p12p10-----13-15-15^-13~~---------------------------
Bb---------------------------------------------------------------------
Gb---------------------------------------------------------------------
Db---------------------------------------------------------------------
Ab---------------------------------------------------------------------
Eb---------------------------------------------------------------------
Listen to the CD how many times you plays every tapping part!!!...

Eb------------------------------------------------------------------------
Bb-15^----------15^----------15^----------------15^-----------15^---------
Gb-------------------------------15--17--17-------------------------------
Db-----17--17--------17--17---------------------------17--17-------17--17-
Ab------------------------------------------------------------------------
Eb------------------------------------------------------------------------

Eb--10/11--11/13--15--15^--13~~-------------------------------------------
Bb------------------------------------------------------------------------
Gb------------------------------------------------------------------------
Db------------------------------------------------------------------------
Ab------------------------------------------------------------------------
Eb------------------------------------------------------------------------

Verse,bridge,chorus you play same as above...Just enjoy!!!
Rate please...
NOTES:
h  = Hammer on
p  = Pull of
^  = Bend
/  = Slide Up
~~ = Vibrato





Comments


Popular Edguy tabs & chords
Vain Glory Opera Bass Tabs
Holy Water Chords
Reach Out Chords
Thorn Without A Rose Chords
How Many Miles Tabs
Scarlet Rose Tabs
Steel Church Tabs
Tears Of A Mandrake Tabs
The Kingdom Tabs
Forever Ukulele


Song lyrics



↑ Back to top | Tablatures and chords are parodies/interpretations of the original songs. You may use it for private study, scholarship, research or language learning purposes only
© 2014 AZChords.com Contact us | Privacy policy | DMCA | Add/correct tabs | Request tabs | Top 50 tabs