» » »

Painting On The Wall Bass tabs (ver.1)

Artists:  A B C D E F G H I J K L M N O P Q R S T U V W X Y Z # 

Painting On The Wall Bass tabs (ver.1)

Edguy
Rating:
0/5 (0 votes)

Hard to play? Try these video lessons and learn fast.
                Tuning 4-string: E A D G

Intro first keyboard then:
G --------------|
D --------------|
A -2---3--------| 2x
E ---0---333333-|

verse
G -------------------------------------------------------------------|
D -------------------------------------------------------------------|
A -----------------3333333333333333-----------------333333333333-----|
E -0000000000000000-----------------0000000000000000------------0000-|

Pre Chorus I
G ----------------------------------------------------------------|
D ----------------------------------------------------------------|
A ----------------5555555555555555----------------33333333555555--|
E -3333-33-333553------------------0----00-0-00-0-----------------|
                                        ss s ss s

Chorus
G ---------------------------------------------------------------|
D ---------------------------------------------------------------|
A -2222222-------3333--------------0--22222222------3333-5(16x)--|
E ----------0000-------33333333---3------------0000--------------|

After Chorus I
G ----------------------------------------------|
D ----------------------------------------------|
A ----------------5555555555555555--2----3---5--|
E -3333-34-544444-------------------------------|

Verse II       1x                     2x
G -----------------|------------------------------------|
D -----------------|------------------------------------|
A -7777777777-7----|-7777777777777777-3333333333333332--|
E -----------0-7/0-|------------------------------------|

Pre Chorus I 1x
Chorus 1x
After Chorus I 1x

  Intro solo         during the solo
G --------------|-------------------------------------...
D --------------|-------------------------------------...
A --------------|-3333333333333333-0000000000000000---...
E -000000000000-|-------------------------------------...

G -----------------------------------|
D -------------3333------------------|
A -333333333333----------------------|
E ------------------3333333333333333-|

Bridge (something close to this)
G --------------------------2h4p2h4--------------|
D ----------------------2h4----------------------|
A -------------------2h4-------------------------|
E -4--44-3--33-1--11-----------------5--55-00-00-|

Chorus 1x
After Chorus 1x
Chorus 1x
After Chorus 1x
Chorus (fade out)

That's it, pretty difficult song but here it is.
Have Fun
Greetings ClosedRoad
            
Hard to play? Try these video lessons and learn fast. | Correct




comments powered by Disqus
↑ Back to top | Tablatures and chords are parodies/interpretations of the original songs. You may use it for private study, scholarship, research or language learning purposes only