» » »

Kasailai Pani Ma Tabs (ver.1)

Artists:  A B C D E F G H I J K L M N O P Q R S T U V W X Y Z # 

Kasailai Pani Ma Tabs (ver.1)

Edge
Rating:
5/5 (2 votes)

Hard to play? Try these video lessons and learn fast.
                During the Verse the Intro Plays at first. Then At some point the Power Chords start.
Listen to the Song for the placement.
	G   
E||-----------3------------|-----------3------------|
B||--------3--------3------|--------3--------3------|
G||------------------------|------------------------|
D||-----5------------------|-----5------------------|
A||------------------------|------------------------|
E||--3---------------------|--3---------------------|


	Em			       C     
-----------3------------|-----------3------------|-----------3------------|
--------3--------3------|--------3--------3------|--------3--------3------|
------------------------|------------------------|------------------------|
-----5------------------|-----5------------------|-----5------------------|
------------------------|------------------------|--3---------------------|
--0---------------------|--0---------------------|------------------------|


		     D     
-----------3------------|-----------3------------|-----------3------------|
--------3--------3------|--------3--------3------|--------3--------3------|
------------------------|------------------------|------------------------|
-----5------------------|-----5------------------|-----5------------------|
--3---------------------|--5---------------------|--5---------------------|
------------------------|------------------------|------------------------|
Repeat the Plugging as required…..|^


	G5>>>>>
E||--------------------------|--------------------------|
B||--------------------------|--------------------------|
G||--------------------------|--------------------------|
D||--------------------------|--------------------------|
A||--5--5--5--5--5--5--5--5--|--5--5--5--5--5--5--5--5--|
E||--3--3--3--3--3--3--3--3--|--3--3--3--3--3--3--3--3--|


	E5>>>
|--------------------------|--------------------------|
|--------------------------|--------------------------|
|--------------------------|--------------------------|
|--------------------------|--------------------------|
|--2--2--2--2--2--2--2--2--|--2--2--2--2--2--2--2--2--|
|--0--0--0--0--0--0--0--0--|--0--0--0--0--0--0--0--0--|


 	C5>>>> 
|--------------------------|--------------------------|
|--------------------------|--------------------------|
|--------------------------|--------------------------|
|--5--5--5--5--5--5--5--5--|--5--5--5--5--5--5--5--5--|
|--3--3--3--3--3--3--3--3--|--3--3--3--3--3--3--3--3--|
|--------------------------|--------------------------|


  PM PM                                           
  D5	C5	B5	C5	D5	  
|--------------------------|-------------------------|
|--------------------------|-------------------------|
|--------------------------|-------------------------|
|--7--7--7--5--5--5--4--4--|--4--5--5--5--7-----7----|
|--5--5--5--3--3--3--2--2--|--2--3--3--3--5-----5----|
|--------------------------|-------------------------|

©Musicmyth: Guitar tabs and chords for Kasailai pani ma by the edge band
            
Hard to play? Try these video lessons and learn fast. | Correct




comments powered by Disqus
↑ Back to top | Tablatures and chords are parodies/interpretations of the original songs. You may use it for private study, scholarship, research or language learning purposes only