» » »

Edge, Kasailai Pani Ma Tabs (ver.2)

Artists:  A B C D E F G H I J K L M N O P Q R S T U V W X Y Z # 

Kasailai Pani Ma Tabs (ver.2)

Edge Tabs
 Rating:
4.2/5 (5 votes)
Kasailai Pani Ma lessons Tabs too difficult? Try these video lessons and learn fast
1
                (Intro)
Kasailai Pani Ma…..!
-The Edge
Intro:
There are two guitars playing intro at a time. Gtr 1 plays on low notes whereas Gtr2 
Plays on high notes.
For Gtr 1, the Intro is in same position when repeated. On the contrary, the Gtr 2 plays 
on different positions each time the Intro Repeats.

Guitar 1> Intro:
			     G
E||----------------------------------|--------------------------|
B||----------------------------------|--------------------------|
G||----------------------------------|--------------------------|
D||----------------------------------|--5-----5--4--5-----5--4--|
A||----------------------------------|--------------------------|
E||----------------------------------|--------------------------|

			Em
--------------------------|--------------------------|
--------------------------|--------------------------|
--------------------------|--------------------------|
--5-----5--4--5--7--5--4--|--2-----2--0--2-----2--0--|
--------------------------|--------------------------|
--------------------------|--------------------------|

			C
--------------------------|--------------------------|
--------------------------|--------------------------|
--------------------------|--------------------------|
--2-----2--0--2--5--4--2--|--------------------------|
--------------------------|--3-----3--2--3-----3--2--|
--------------------------|--------------------------|

			D
--------------------------|--------------------------|
--------------------------|--------------------------|
--------------------------|--------------------------|
-----------------2--------|--------------------------|
--3-----3--2--3-----5--3--|--5-----5--3--5-----5--3--|
--------------------------|--------------------------|

--------------------------||
--------------------------||
--------------------------||
-----------------4--2-----||
--5-----5--3--5--------5--||
--------------------------||

Guitar 2>Intro:
		G
E||-------------------|--------------------------------|
B||-------------------|--------------------------------|
G||-------------------|--12-----12--11--12-----12--11--|
D||-------------------|--------------------------------|
A||-------------------|--------------------------------|
E||-------------------|--------------------------------|


			Em
---------------------------------|--------------------------|
---------------------------------|--------------------------|
--12-----12--11--12--14--12--11--|--9-----9--7--9-----9--7--|
---------------------------------|--------------------------|
---------------------------------|--------------------------|
---------------------------------|--------------------------|


			C
--------------------------|--------------------------|
-----------------8--7-----|--------------------------|
--9-----9--7--9--------9--|--5-----5--4--5-----5--4--|
--------------------------|--------------------------|
--------------------------|--------------------------|
--------------------------|--------------------------|


 			D
--------------------------|--------------------------|
-----------------5--------|--------------------------|
--5-----5--4--5-----7--5--|--7-----7--5--7-----7--5--|
--------------------------|--------------------------|
--------------------------|--------------------------|
--------------------------|--------------------------|


			G
--------------------------|--------------------------|
-----------------7--5-----|--------------------------|
--7-----7--5--7--------7--|--------------------------|
--------------------------|--9-----9--7--9-----9--7--|
--------------------------|--------------------------|
--------------------------|--------------------------|


 			Em
---------------------------|--------------------------|
---------------------------|--------------------------|
---------------------------|--------------------------|
--9-----9--7--9--10--9--7--|--5-----5--4--5-----5--4--|
---------------------------|--------------------------|
---------------------------|--------------------------|


 			C
--------------------------|--------------------------|
--------------------------|--------------------------|
-----------------4--------|--------------------------|
--5-----5--4--5-----7--5--|--2-----2--0--2-----2--0--|
--------------------------|--------------------------|
--------------------------|--------------------------|

			D
--------------------------|--------------------------|
--------------------------|--------------------------|
--------------------------|--------------------------|
--2-----2--0--2--5--4--2--|--4-----4--2--4-----4--2--|
--------------------------|--------------------------|
--------------------------|--------------------------|


  			G
--------------------------|--------------------------------|
--------------------------|--12-----12--10--12-----12--10--|
-----------------2--------|--------------------------------|
--4-----4--2--4-----5--4--|--------------------------------|
--------------------------|--------------------------------|
--------------------------|--------------------------------|


 			Em
---------------------------------|--------------------------|
--12-----12--10--12--13--12--10--|--8-----8--7--8-----8--7--|
---------------------------------|--------------------------|
---------------------------------|--------------------------|
---------------------------------|--------------------------|
---------------------------------|--------------------------|


			C
-----------------7---------|--------------------------|
--8-----8--7--8-----10--8--|--5-----5--3--5-----5--3--|
---------------------------|--------------------------|
---------------------------|--------------------------|
---------------------------|--------------------------|
---------------------------|--------------------------|


 			D
-----------------3--2-----|--------------------------|
--5-----5--3--5--------5--|--7-----7--5--7-----7--5--|
--------------------------|--------------------------|
--------------------------|--------------------------|
--------------------------|--------------------------|
--------------------------|--------------------------|


-----------------5--------|
--7-----7--5--7-----8--7--|
--------------------------|
--------------------------|
--------------------------|
--------------------------|
            
Submit corrections

comments powered by Disqus
↑ Back to top | Edge Tabs for Kasailai Pani Ma. Lyrics for acoustic guitar and electric guitar. 1 Tablatures and chords are parodies/interpretations of the original songs. You may use it for private study, scholarship, research or language learning purposes only