» » »

Eddie Cochran, C Mon Everybody Tabs (ver.1)

Artists:  A B C D E F G H I J K L M N O P Q R S T U V W X Y Z # 

C Mon Everybody Tabs (ver.1)

Eddie Cochran Tabs
Rating:
0/5 (0 votes)
C Mon Everybody lessons Tabs too difficult? Try these video lessons and learn fast
                C’mon every body – Eddie Cochran
-------------------------------------------------------------------------------


Easy and great song!!! Enjoy!!!

Tuning:  eBGDAE

Intro + Chorus
        E5                     A5                      B5           A5       E5           PM****
e|------------------------------------------------------------------------------------|
B|------------------------------------------------------------------------------------|
G|-- 9--9--9--9--9---------------------------------------------------9----------------|      x2
D|---9--9--9--9--9-----7--7--7--7--7------ 9--9--------7--7----9----------------------|
A|---7--7--7--7--7-----7--7--7--7--7-------9--9--------7--5----7----------------------|
E|---0--0--0--0--0------- ----5--5--5--5--5-------7--7--------5--5----0------7-9-7-9--|

Verse
PM************************************************************************
Well c’mon...        Been doin’...        all weekend…     now the..
       E5                       A5                   B5                           A5
e|---------------------------------------------------------------------------|
B|---------------------------------------------------------------------------|
G|--9--9--9- 9---------------------------------------------------------------|
D|--9--9--9--9----x4---- 7-7-7-7-7-7-----9--9--9--9--9--9----7-7-7-7-7-7-----|
A|--7--7--7--7-------------7-7-7-7-7-7-----9--9--9--9--9--9----7--7-7-7-7-7--|
E|--0- 0--0--0-------------5-5-5-5-5-5-----7--7--7--7--7--7----5--5-5-5-5-5--|
*****************
And the folks are gone             Ooo C’mon everybody
      B5                        E5
e|------------------------------------------------------------------------------------|
B|------------------------------------------------------------------------------------|
G|--------------------------- 9-------------------------------------------------------|
D|--9-9--9-9 9--9---------9-----------------------------------------------------------|
A|--9--9-9-9-9--9---------7-----------------------------------------------------------|
E|--7--7-7-7-7-7----------0-----------------------------------------------------------|


Song order
Intro
Verse 1
Chorus
Verse 2
Chorus
Verse 3
Chorus x2

Symbols used
PM *** palm muted

Lyrics

Verse 1
Well c'mon everybody and let's get together tonight
I got some money in my jeans and I'm really gonna spend it right
Been  doin' my homework all week long
now the house is empty the folks are gone
Ooo C'mon everybody

Verse 2
Well my baby's number one but I'm gonna dance with three or four
And the house'll be shakin' from my bare feet slapping the floor
When you hear that music you can't sit still
If your brother won't rock then your sister will
Ooo C'mon everybody

Verse 3
Well we'll really have a party but we gotta put a guard outside
If the folks come home I'm afraid they gonna have my hide
There'll be no more movies for a week or two
No more runnin' 'round with the usual crew
Who cares C'mon everybody
            
Submit corrections

comments powered by Disqus
↑ Back to top | Eddie Cochran Tabs for C Mon Everybody. Lyrics for acoustic guitar and electric guitar. Tablatures and chords are parodies/interpretations of the original songs. You may use it for private study, scholarship, research or language learning purposes only