» » »

Twenty Flight Rock Bass tabs (ver.1)

Artists:  A B C D E F G H I J K L M N O P Q R S T U V W X Y Z # 

Twenty Flight Rock Bass tabs (ver.1)

Eddie Cochran
Rating:
0/5 (0 votes)

Hard to play? Try these video lessons and learn fast.
                Eddie Cochran "Twenty Flight Rock"


Intro
  A
|---------|    |---|
|-------2-|    |---|
|-0---4---| x3 |-0-|
|---------|    |---|

Verse 1
  A              D              A     E              A
|---------|    |-------2-|    |---| |-----1-4-|    |---|
|-------2-|    |-0---4---|    |---| |-2-------|    |---|
|-0---4---| x4 |---------| x2 |-0-| |---------| x2 |-0-|
|---------|    |---------|    |---| |---------|    |---|

Chorus
  A                               D               A               E
|---------------------------------------4-7-4-------------------------------------|
|-------4-7-4---4-7-4---4-7-5-4-----4-7-------7-4-7-4---4-7-4---4---4-5-4---------|
|---4-7-------7-------7---------7-5-------------------7-------7---7-------7-5-4---|
|-5-----------------------------------------------------------------------------7-|

Verse 2
  A              D              A     E       D           A   (Pre Chorus)
|---------|    |-------2-|    |---| |-----1-4-------2-| |---| |-------|
|-------2-|    |-0---4---|    |---| |-2-------0---4---| |---| |-------|
|-0---4---| x4 |---------| x2 |-0-| |-----------------| |-0-| |-------|
|---------|    |---------|    |---| |-----------------| |---| |-0-2-4-|

Chorus
  A                               D               A               E
|---------------------------------------4-7-4-------------------------------------|
|-------4-7-4---4-7-4---4-7-5-4-----4-7-------7-4-7-4---4-7-4---4---4-5-4---------|
|---4-7-------7-------7---------7-5-------------------7-------7---7-------7-5-4---|
|-5-----------------------------------------------------------------------------7-|

Solo
  A                                               D               A
|-----------------------------------6-9-6---------------4-7-4---------------------|
|-------4-7-4---4-7---------4-5-6-7-------7-5-4-----4-7-------7-4-7-5-4---7-------|
|---4-7-------7-----4-5-6-7---------------------7-5---------------------7---4-5-6-|
|-5-------------------------------------------------------------------------------|

  E
|-----------------|
|---4-5-4---------|
|-7-------7-5-4---|
|---------------5-|

Verse 2
  A              D              A     E       D           A   (Pre Chorus)
|---------|    |-------2-|    |---| |-----1-4-------2-| |---| |-------|
|-------2-|    |-0---4---|    |---| |-2-------0---4---| |---| |-------|
|-0---4---| x4 |---------| x2 |-0-| |-----------------| |-0-| |-------|
|---------|    |---------|    |---| |-----------------| |---| |-0-2-4-|

Chorus
  A                               D               A               E
|---------------------------------------4-7-4-------------------------------------|
|-------4-7-4---4-7-4---4-7-5-4-----4-7-------7-4-7-4---4-7-4---4---4-5-4---------|
|---4-7-------7-------7---------7-5-------------------7-------7---7-------7-5-4---|
|-5-----------------------------------------------------------------------------7-|

End on A
            
Hard to play? Try these video lessons and learn fast. | Correct




comments powered by Disqus
↑ Back to top | Tablatures and chords are parodies/interpretations of the original songs. You may use it for private study, scholarship, research or language learning purposes only