» » »

Eatmewhileimhot, Xburritox Tabs (ver.2)

Artists:  A B C D E F G H I J K L M N O P Q R S T U V W X Y Z # 

Xburritox Tabs (ver.2)

Eatmewhileimhot Tabs
 Rating:
4/5 (10 votes)
Xburritox lessons Tabs too difficult? Try these video lessons and learn fast
1
                   standered tuning
   * pinch harmonic
   h hammer

      intro
   |-------------------------------------------------|
   |-------------------------------------------------|
   |-------------------------------------------------|
   |-------------------------------------------------|
   |-0h5h8-0h5h8-0h5h8-0h5h8-0h5h8-0h5h8-0h5h8-0h5h8-|

   (intro continued)
   |------------------------------------------------|
   |------------------------------------------------|
   |------------------------------------------------|
   |------------------------------------------------|
   |------------------------------------------------|
   |0h4h7-0h4h7-0h4h7-0h4h7-0h4h7-0h4h7-0h4h7-0h4h7-|


   (intro continued)
   |------------------------------------------------|
   |------------------------------------------------|
   |------------------------------------------------|
   |------------------------------------------------|
   |0h5h8-0h5h8-0h5h8-0h5h8-0h5h8-0h5h8-0h5h8-0h5h8-|
   |------------------------------------------------|

   (intro continued)
   |------------------------------------------------------------------|
   |------------------------------------------------------------------|
   |------------------------------------------------------------------|
   |------------------------------------------------------------------|
   |------------------------------------------------------------------|
   |0h7h10-0h7h10-0h7h10-0h7h10-0h7h10-0h7h10-0h7h10-0h7h10-7-8--10-12|

      repeat intro three times


                             ( X-? )
   |--------------------------|-------|
   |--------------------------|-------|
   |--------------------------|---2---|
   |-----------------2-2------|---2---|
   |-----2-2-4-2-2-4-2-2--b3*-|---0---|
   |-b6*-1-1-1-1-1-1-1-1------|-------|

                               ( x-? )
   |--------------------------|---------|
   |--------------------------|---------|
   |--------------------------|---2-----|
   |-2-2-2-2-2-2-2-2-2-2-2-2--|---2-----|
   |-2-2-2-2-2-2-2-2-2-2-2-2--|---0-----|
   |-0-0-1-0-0-1-0-0-1-0-0-1--|---------|
    (............palm mute..............)

   |---------------------------------0--|
   |---------------------------------0--|
   |----------------------------2----0--|
   |----------------------------2----0--|
   |-2-2-2-2-2-2-2-2-2-2-2-2-2--0----0--|
   |-0-0-1-0-0-1-0-0-1-0-1-1-1-------0--|


   |--------------------------------------|
   |-6-6---10-10-10---6-6---9--9--9--9----|
   |-9-9---13-13-13---9-9---12-12-12-12---|
   |--------------------------------------|
   |--------------------------------------|
   |--------------------------------------|


   |------------------------------------------------0--|
   |6-6---9--10---6-6---10-10-10-10---6-6---6h0-----0--|
   |9-9---12-13---9-9---13-13-13-13---9-9---9h0-----0--|
   |------------------------------------------------0--|
   |---------------------------------------------------|
   |---------------------------------------------------|

   |-------------------------------------------------------------------0---|
   |-6-6---10-10---7--6---10-10-10---6-6---9--10---6-6---10-10-10-10--(3*)-|
   |-9-9---13-13---10-9---13-13-13---9-9---12-13---9-9---13-13-13-13---0---|
   |-----------------------------------------------------------------------|
   |-----------------------------------------------------------------------|
   |-----------------------------------------------------------------------|

    this is my first tabs so be gentel please.
i believe most of it is correct, the parts taht has  ( x-? ) repeat but i dont know how 
times.

if you wish me to take notice to it. thank you
            
Submit corrections

comments powered by Disqus
↑ Back to top | Eatmewhileimhot Tabs for Xburritox. Lyrics for acoustic guitar and electric guitar. 1 Tablatures and chords are parodies/interpretations of the original songs. You may use it for private study, scholarship, research or language learning purposes only