» » »

Eatmewhileimhot, Xburritox Tabs (ver.1)

Artists:  A B C D E F G H I J K L M N O P Q R S T U V W X Y Z # 

Xburritox Tabs (ver.1)

Eatmewhileimhot Tabs
 Rating:
3.1/5 (7 votes)
Xburritox lessons Tabs too difficult? Try these video lessons and learn fast
1
                This is my first tab,so be nice about the commenting.
I am pretty sure it is mostly correct.This is guitar 1 and 2.The lyrics will go along 
the tab.Cause there isn't much to them haha.
The tuning is Drop C : C G C F A D

Guitar 1

D-------------------------------------------------------|
A-------------------------------------------------------|
F-------------------------------------------------------|
C-------------------------------------------------------|
G---0h5h8-x8-0h4h7-x8-0h9h12-x8-0h5h8-x4-0h4h7-x4-------|
C-------------------------------------------------------|

Guitar 2

D-------------------------------------------------------|
A-------------------------------------------------------|
F-------------------------------------------------------|
C---------------------0~~~~~~~~~~~~~~~~6-7-9-10---------|
G---------------------0~~~~~~~~~~~~~~~~-----------------|
C---------------------0~~~~~~~~~~~~~~~~-----------------|

Guitar 1

D-------------------------------------------------------------|
A-------------------------------------------------------------| `
F-------------------------------------------------------------|  `
C-------------------------------------------------------------|   `
G---0h5h8-x8-0h4h7-x8-0h9h12-x8-0h5h8-x4-0h4h7-x4-------------|    `
C-------------------------------------------------------------|     `
                                                              x3
Guitar 2                                                       /
                                                              /
D-------------------------------------------------------------|     /
A-------------------------------------------------------------|    /
F-------------------------------------------------------------|   /
C-----------------------------------6-7-9-10------------------|  /
G---0-0-000-000-0-000-000-0-000-000---------------------------| /
C---0-0-000-000-0-000-000-0-000-000---------------------------|
    . . ... ... . ... ... . ... ...

Guitar 1 and 2

D-------------------------------------------------------|
A-------------------------------------------------------|
F-------------------------------------------------------|
C---0~~~~~~~~~~~~~~~~~~~~~~~----------------------------|
G---0~~~~~~~~~~~~~~~~~~~~~~~----------------------------|
C---0~~~~~~~~~~~~~~~~~~~~~~~----------------------------|

Every Single Word I Say Is Metal!

Guitar 1 and 2

    Captain Planet,He's a Hero,He's gonna bring pollution down to zero
D---------------------------------------------------------------------|
A---------------------------------------------------------------------|
F---------------------------------------------------------------------|
C---------------------------------------------------------------------|
G----0--0---0--0---0---00--0------------------------------------------|
C----0--0---0--0---0---00--0------------------------------------------|
     .  .   .  .   .   ..  .

Guitar 1

    Captain Planet,He's a Hero,He's gonna bring pollution down to zero
D----------------------------------------------------------------------|
A----------------------------------------------------------------------|
F----------------------------------------------------------------------|
C--------------------------6-9-8---------------------------6-8-9-8-6-8-|
G---6-7-9-10-9-7-6-7-6-7-9-------9-10-6-7-9-10-9-7-6-7-6-7-------------|
C----------------------------------------------------------------------|
                                                                       `
Guitar 2                                                               x2
                                                                       /
D----------------------------------------------------------------------|
A----------------------------------------------------------------------|
F----------------------------------------------------------------------|
C----------------------------------------------------------------------|
G----0--0---0--0---0---00--0-------------------------------------------|
C----0--0---0--0---0---00--0-------------------------------------------|
     .  .   .  .   .   ..  .

Guitar 1 and 2
    Down~~~~~~~~to~~~~~~~~~~~~Ze~~~~~~~~~~~ro
D---------------------------------------------------------------------|
A---------------------------------------------------------------------|
F---------------------------------------------------------------------|
C---------------------------------------------------------------------|  x2
G---0~~~~~~~~~~~0~~~~~~~~~~~~~~0~~~~~~~~~~~~0~~~~~~~~~~~~-------------|
C---0~~~~~~~~~~~0~~~~~~~~~~~~~~0~~~~~~~~~~~~0~~~~~~~~~~~~-------------|
    .           .              .            .

Ok,so that the song.If you have any corrections feel free to make them.

Comment/Rate
            
Submit corrections

comments powered by Disqus
↑ Back to top | Eatmewhileimhot Tabs for Xburritox. Lyrics for acoustic guitar and electric guitar. 1 Tablatures and chords are parodies/interpretations of the original songs. You may use it for private study, scholarship, research or language learning purposes only