>
 >
The Point 1

The Point 1 Guitar Tabs

Eatmewhileimhot - The Point 1 chords, tabs, tablatures, lyrics

Guitar lessons | Add/correct | Request | Top 50 tabs Artists:  A B C D E F G H I J K L M N O P Q R S T U V W X Y Z 0-9

The Point 1 Guitar Tabs – Eatmewhileimhot

CD, Sheet music, Poster

Do you like The Point 1? Share with your friends now
TabsTabs v2
-------------------------------------------------------------------------------
                             The Point - EatMeWhileImHot!
-------------------------------------------------------------------------------

Tuning:Drop C

d|-------------------------------------------------------------------------|
A|4h5555555555555555(Repeat Til Chorus. Right before chorus slightly unmute|
F|-------------------------------------------------------------------------|
C|-------------------------------------------------------------------------|
G|-------------------------------------------------------------------------|
C|-------------------------------------------------------------------------|
      ^^^Im not 100& sure. sounds right to me though.^^

d|-------------------------------------------------------------------------|
A|-------------------Only 1stx---------------------------------------------|
F|5-55-5-5-5-5------(5-55-5-5-5)-------------------------------------------|
C|5 55-5-5-5-5-xxxx-(5-55-5-5-5)-7777-9-10-2-3--3-33-3-3xxxx---------------|
G|5 55-5-5-5-5-xxxx-(5-55-5-5-5)-7777-9-10-2-3--3-33-3-3xxxx---------------|
C|-------------------------------7777-9-10-2-3--3-33-3-3xxxx---------------|

  Repeat Verse and Chorus

d|-------------------------------------------------------------------------|
A|-----------------------------------------7--7--7--7------6-6-6-6---------|
F|---------------------------------------10-10-10-10-(x4)-9-9-9-9-(x4)-----|
C|3~---3~---3--3--3--3--3--3--3--3--3--------------------------------------|
G|3~---3~---3--3--3--3--3--3--3--3--3--------------------------------------|
C|3~---3~---3--3--3--3--3--3--3--3--3--------------------------------------|

 Breakdown Pt. 1
d|-------------------------------------------------------------------------|
A|-------------------------------------------------------------------------|
F|-------------------------------------------------------------------------|
C|0-----Figure Out the rythym Yourself ------------------------------------|
G|0------------------------------------------------------------------------|
C|0------------------------------------------------------------------------|

 Breakdown Pt.2 ...I'm so glad I left you behind...
d|-------------------------------------------------------------------------|
A|-------------------------------------------------------------------------|
F|-------------------------------------------------------------------------|
C|-------------------------------------------------------------------------|
G|0~-0---Same rythym just extra intense------------------------------------|
C|0~-1---------------------------------------------------------------------|

  Breakdown Pt. Tres
d|-------------------------------------------------------------------------|
A|-------------------------------------------------------------------------|
F|-------------------------------------------------------------------------|
C|------------------------------------------------------------------------ |
G|000----0----000----------------------------------------------------------|
C|000----1----000----------------------------------------------------------|
         ^ Listen for it

Note: Verse can be played same way on the F string I do believe. I cant    find a good 
of EMWIH playing it. Just use your ears.

      Short,sweet,and To the Point :D

      Good Luck!

      First tab! take it easy on me!

| /  slide up
| \  slide down
| h  hammer-on
| p  pull-off
| ~  Let Ring
| +  harmonic
| x  Mute note





Comments


Popular Eatmewhileimhot tabs & chords
Mother May I Chords
Mother May I 2 Chords
All My Friends Tabs
Damn Straight Tabs
Screw The Standard Tabs
The Point Tabs
When In Rome Tabs
Xburritox Tabs
Xburritox 1 Tabs
Mother May I Ukulele


Song lyrics



↑ Back to top | Tablatures and chords are parodies/interpretations of the original songs. You may use it for private study, scholarship, research or language learning purposes only
© 2014 AZChords.com Contact us | Privacy policy | DMCA | Add/correct tabs | Request tabs | Top 50 tabs