» » »

Eatmewhileimhot, The Point Tabs (ver.1)

Artists:  A B C D E F G H I J K L M N O P Q R S T U V W X Y Z # 

The Point Tabs (ver.1)

Eatmewhileimhot Tabs
Rating:
5/5 (4 votes)
The Point lessons Tabs too difficult? Try these video lessons and learn fast
                K so this isnt really a hard song.. but its fun to play and tab:) i think its in drop c
(long story) if you find any mistakes or just leave it in comment. thanx:)


|---------------------------------------------------------------|
|---------------------------------------------------------------|
|-4h5-5-5-5-5-5-5-5-5-5-5-5-5-5---4-4-4h5-5-5-5-5-5-5-5-5-5-5-5-|     (x7)
|---------------------------------------------------------------|
|---------------------------------------------------------------|
|---------------------------------------------------------------|
                         (palm muted)

|----------------------------------------|
|----------------------------------------|
|----------------------------------------|
|--10----10-10---10-10--xxxxx------------|
|--10----10-10---10-10--xxxxx------------|
|--10----10-10---10-10--xxxxx------------|

|----------------------------------------------------|
|----------------------------------------------------|
|----------------------------------------------------|
|--10---10-10---10-10--------------------------------|
|--10---10-10---10-10---------5-------7--------------|
|--10---10-10---10-10----3/(5)---5/(7)---------------|

|-----------------------------------------------------------|
|-----------------------------------------------------------|
|-----------------------------------------------------------|
|-7----7-7---7---11---9---7--5-5--5-5--5-5-xxxxx------------|
|-7----7-7---7---11---9---7--5-5--5-5--5-5-xxxxx------------|
|-7----7-7---7---11---9---7--5-5--5-5--5-5-xxxxx------------|

|--------------------------------------------------------------|
|--------------------------------------------------------------|
|--------------------------------------------------------------|
|--5--5-5--5-5--------------------7---7-7--7---11--9---7---5---|
|--5--5-5--5-5--------5-------7---7---7-7--7---11--9---7---5---|
|--5--5-5--5-5---3/(5)---5/(7)----7---7-7--7---11--9---7---5---|

(pause)

|---------|
|---------|
|---------|
|--5~-----|
|--5~-----|
|--5~-----|

|---------------------------------------------------------------|
|---------------------------------------------------------------|
|-4h5-5-5-5-5-5-5-5-5-5-5-5-5-5---4-4-4h5-5-5-5-5-5-5-5-5-5-5-5-|     (x7)
|---------------------------------------------------------------|
|---------------------------------------------------------------|
|---------------------------------------------------------------|

|----------------------------------------|
|----------------------------------------|
|----------------------------------------|
|--10----10-10---10-10--xxxxx------------|
|--10----10-10---10-10--xxxxx------------|
|--10----10-10---10-10--xxxxx------------|

|----------------------------------------------------|
|----------------------------------------------------|
|----------------------------------------------------|
|--10---10-10---10-10--------------------------------|
|--10---10-10---10-10---------5-------7--------------|
|--10---10-10---10-10----3/(5)---5/(7)---------------|

|-----------------------------------------------------------|
|-----------------------------------------------------------|
|-----------------------------------------------------------|
|-7----7-7---7---11---9---7--5-5--5-5--5-5-xxxxx------------|
|-7----7-7---7---11---9---7--5-5--5-5--5-5-xxxxx------------|
|-7----7-7---7---11---9---7--5-5--5-5--5-5-xxxxx------------|

|--------------------------------------------------------------|
|--------------------------------------------------------------|
|--------------------------------------------------------------|
|--5--5-5--5-5--------------------7---7-7--7---11--9---7---5---|
|--5--5-5--5-5--------5-------7---7---7-7--7---11--9---7---5---|
|--5--5-5--5-5---3/(5)---5/(7)----7---7-7--7---11--9---7---5---|

|----------------------------------------|
|----------------------------------------|
|----------------------------------------|
|--5~-----------5~-----------------------|
|--5~-----------5~-----------------------|
|--5~-----------5~-----------------------|

then the part where he goes "your so far gone"
|------------------------------------------------|
|------------------------------------------------|
|------------------------------------------------|
|-9-9-9-9-9-9-9----------------------------------|
|-9-9-9-9-9-9-9----------------------------------|
|-9-9-9-9-9-9-9----------------------------------|

"but im moving on"

|------------------------------------------|
|---7--7--7--7--7--7--7----6-6-6-6-6-6-6-6-|        (x2)
|--10-10-10-10-10-10-10----9-9-9-9-9-9-9-9-|
|------------------------------------------|
|------------------------------------------|
|------------------------------------------|


|----------------------------------------------------|
|----------------------------------------------------|
|----------------------------------------------------|
|-0---0-0-0-0---0-0-0----0--0--0--0--0-0-0-0---------|
|-0---0-0-0-0---0-0-0----0--0--0--0--0-0-0-0---------|
|-0---0-0-0-0---0-0-0----0--0--0--0--0-0-0-0---------|
  .   . . . .   . . .    .  .  .  .  . . . .

after "left you behind" theres a pause and

|-----------------|
|-----------------|
|-----------------|
|-0--0-0-0-0------|
|-0--0-0-0-0------|
|-1--1-1-1-1------|
(partly palm muted)

Figure teh pattern out its not hard.
then he yells "YA!" or something like he usually does and its back to


|---------------------------|
|---------------------------|
|---------------------------|
|-0---0-0-0-0---0-0-0----0--|
|-0---0-0-0-0---0-0-0----0--|
|-0---0-0-0-0---0-0-0----0--|
  .   . . . .   . . .    .
patterns a little tricky but you'll get it.

ends on

|---------|
|---------|
|---------|
|-13------|
|-12------|
|-11------|
            

comments powered by Disqus
↑ Back to top | Eatmewhileimhot Tabs for The Point. Lyrics for acoustic guitar and electric guitar. Tablatures and chords are parodies/interpretations of the original songs. You may use it for private study, scholarship, research or language learning purposes only