» » »

Earth Wind And Fire, Shining Star Bass tabs (ver.2)

Artists:  A B C D E F G H I J K L M N O P Q R S T U V W X Y Z # 

Shining Star Bass tabs (ver.2)

Earth Wind And Fire Tabs
 Rating:
4/5 (4 votes)
Shining Star lessons Tabs too difficult? Try these video lessons and learn fast
                S - Slap
P - Pop

Intro- Guitar goes through once, then bass comes in:
G:|----------------------------------------|
D:|----------2---------55-4-2-0------------|
A:|-----2-4-----4-2-4------------55-4-2----|
E:|0-4----------------------------------4--|


verse.     P         P         P       P P  P  P P
G:|--------7|--------9|--------7|------1212-11-9-7--|
D:|---------|---------|---------|-------------------|
A:|---------|---------|---------|-------------------|
E:|0--0-0---|0--0-0---|0--0-0---|0--X---------------|
   S  S S    S  S S    S  S S    S  
In the song there are other parts used in the last measure.


Chorus.    P        P    P P
G:|--------11-------4---9-8--| 
D:|--------------------------|  
A:|--------------------------|  
E:|5-8------10---3---3--8-7--|
   S S      S    S   S  S S   

          P        P   P P
G:|-------11-------4---9-10--| 
D:|--------------------------|  
A:|--------------------------|  
E:|5-8------10---3---3--8-9--|
   S S      S    S   S  S S  


Bridge:
G:|-------------------|
D:|-------------------|
A:|----------3--------|
E:|0-3-5-0-----0-5-0--|

G:|--------------------------------------------------------12\--|
D:|-------------------------------------------------------------|
A:|-------------------------------------------------------------|
E:|3-0-4-0-5----5-0-6-0-7----7-0-8-0-9----9-0-10-0-11-----------|


Listen To The Song For The Order.
            
Submit corrections

comments powered by Disqus
↑ Back to top | Earth Wind And Fire Bass for Shining Star. Lyrics for acoustic guitar and electric guitar. Tablatures and chords are parodies/interpretations of the original songs. You may use it for private study, scholarship, research or language learning purposes only