» » »

Earth Wind And Fire, Shining Star Bass tabs (ver.1)

Artists:  A B C D E F G H I J K L M N O P Q R S T U V W X Y Z # 

Shining Star Bass tabs (ver.1)

Earth Wind And Fire Tabs
 Rating:
4.4/5 (7 votes)
Shining Star lessons Tabs too difficult? Try these video lessons and learn fast
1
                
Intro- Guitar goes through once, then bass comes in:
G:|--------------------------------------|
D:|-----------2-2-----------------5-5-4-2|
A:|-------2-4-----4-2---5-5-4-2-X--------|
E:|0-0-4--------------4------------------|

After that comes the verse. You may want to add in a couple notes to give it some flavor 
the general pattern and what you can get away with is this.
Go through this 4 times
G:|------X|------7|------9|------12-12-11-X-9-X-7-9|
D:|-------|-------|-------|------------------------|
A:|-------|-------|-------|------------------------|
E:|0-0-0--|0-0-0--|0-0-0--|0-0-0-------------------|
In the song there are other parts used in the last measure.

Now here's the cool part. You can play it slap if you have the right kind of bass, 
just accent it as you please.

Half of a Chorus (play 2 times instead of usual four)

G:|-----11------4---9-8--|  Yes there are four chords marked by the /.For
D:|----------------------|  fingering I reccomend you using your index and
A:|----------------------|  middle finger.
E:|5-10----10-3---3-8-7--|
                    / /
G:|-----11------4---9-10|
D:|---------------------|
A:|---------------------|
E:|5-10----10-3---3-8-9-|
                    / /

Bridge:
G:|--------|--|-------------------------|12-12|
D:|--------|X2|-------------------------|-----|
A:|3-------|--|-------------------------|-----|
E:|--3--5-3|--|3-4-5-5-6-7-7-8-9-9-10-11|-----|

Listen to the song for the order. Otherwise I made it fairly self explanitory.
            
Submit corrections

comments powered by Disqus
↑ Back to top | Earth Wind And Fire Bass for Shining Star. Lyrics for acoustic guitar and electric guitar. 1 Tablatures and chords are parodies/interpretations of the original songs. You may use it for private study, scholarship, research or language learning purposes only