» » »

Fluxy Tabs (ver.1)

Artists:  A B C D E F G H I J K L M N O P Q R S T U V W X Y Z # 

Fluxy Tabs (ver.1)

Early November
Rating:
4/5 (6 votes)

Hard to play? Try these video lessons and learn fast.
                early november 

'fluxy' 

THIS IS AN AWESOME SONG SO ENJOY ANY QUESTIONS SEND EM TO
tuning: 1/2 step drop d 

guitar 1: 
e|---------------------------------------------------------------------------| 
B|---------------------------------------------------------------------------| 
G|---------------------------------------------------------------------------| 
D|-000000000-000000000-00000000----------------------------------------------| 
A|-555555555-444444444-22222222-44-55555555-55-555555555---------------------| 
E|------------------------------44-55555555-00-777777777---------------------| 

e|---------------------------------------------------------------------------| 
B|---------------------------------------------------------------------------| 
G|------7------7--------------------77----------77---------------------------| 
D|-5555-7-7777-7-repeat----55555555-77-77777777-77--repeat-------------------| 
A|-5555-0-7777-0-then-this-55555555-00-77777777-00---------------------------| 
E|-5555-0-7777-0-----------55555555-00-77777777-00---------------------------| 

or play this 

e|---------------------------------------------------------------------------| 
B|---------------------------------------------------------------------------| 
G|-7777-7-7777-7-----------77777777-77-77777777-77---------------------------| 
D|-7777-7-7777-7-repeat----55555555-77-77777777-77--repeat-------------------| 
A|-5555-0-7777-0-then-this-55555555-00-77777777-00---------------------------| 
E|-5555-0-7777-0-----------55555555-00-77777777-00---------------------------| 

this is where he starts to sing: leat each chord ring 
"it's not fair to find you there".... 
verse: 
e|---------------------------------------------------------------------------| 
B|---------------------------------------------------------------------------| 
G|-7--7--------7--7-5--14------7--7--7--7----7--7--7--14---------------------| 
D|-7--7--5--7--7--7-5---x--or--7--7--7--7----7--7--7---x---------------------| 
A|-5--4--5--7--5--4-5--12------5--4--5--7----5--4--5--12---------------------| 
E|-------5--7-------5----------------5--7----------5-------------------------| 

chorus: wait and see that you are.... 
e|---------------------------------------------------------------------------| 
B|---------------------------------------------------------------------------| 
G|--------77---------77------------------------------------------------------| 
D|-555555-77-7777777-77--repeat-second---5.....------------------------------| 
A|-555555-00-7777777-00---time-end-with--5.....------------------------------| 
E|-555555-00-7777777-00----this----------5.....------------------------------| 

or this 
chorus: wait and see that you are.... 
e|---------------------------------------------------------------------------| 
B|---------------------------------------------------------------------------| 
G|-777777-77-7777777-77------------------7.....------------------------------| 
D|-555555-77-7777777-77--repeat-second---5.....------------------------------| 
A|-555555-00-7777777-00---time-end-with--5.....------------------------------| 
E|-555555-00-7777777-00----this----------5.....------------------------------| 

verse: 
e|---------------------------------------------------------------------------| 
B|---------------------------------------------------------------------------| 
G|-7--7--------7--7-5--14------7--7--7--7----7--7--7--14---------------------| 
D|-7--7--5--7--7--7-5---x--or--7--7--7--7----7--7--7---x---------------------| 
A|-5--4--5--7--5--4-5--12------5--4--5--7----5--4--5--12---------------------| 
E|-------5--7-------5----------------5--7----------5-------------------------| 

then go back to the chorus after the chorus play the intro and back to the 
chorus and end with this 

e|---------------------------------------------------------------------------| 
B|---------------------------------------------------------------------------| 
G|------77-------------------------7777-77-7---------------------------------| 
D|-5555-77--7-slide-towards-----or-7777-77-7---------------------------------| 
A|-5555-00--7--fret-number-one-----5555-00-7---------------------------------| 
E|-5555-00--7----------------------5555-00-7---------------------------------| 

guitar 2: 

e|---------------------------------------------------------------------------| 
B|---------------------------------------------------------------------------| 
G|---------------------------------------------------------------------------| 
D|-0000000-0000000-0000000-0000000-0--0--0--0--00000000-0--0--0--0-----------| 
A|-5555555-7777777-9999999-7777777-10-10-10-10-55555555-12-12-12-12----------| 
E|---------------------------------------------------------------------------| 

then use those the pattern is weird to put here figure it out by using 
only these three notes 
e|---------------------------------------------------------------------------| 
B|---------------------------------------------------------------------------| 
G|---------------------------------------------------------------------------| 
D|--12-12-11-11-9-9----------------------------------------------------------| 
A|---------------------------------------------------------------------------| 
E|---------------------------------------------------------------------------| 

after that play this 
e|---------------------------------------------------------------------------| 
B|---------------------------------------------------------------------------| 
G|-7-7/9/6---------6/11/9/11/7-7/9-------------------------------------------| 
D|-x-x/x/x-wait-a--x/x-/x/x-/x-x/x-------------------------------------------| 
A|-5-5/7/4-second--4/9-/7/9-/5-5/7-------------------------------------------| 
E|---------------------------------------------------------------------------| 

then do this palm mute whatever you have to palm mute 
e|---------------------------------------------------------------------------| 
B|---------------------------------------------------------------------------| 
G|-7--6------------7-7-7-7---------------------------------------------------| 
D|-7--6--5--7--or--7-7-7-7---------------------------------------------------| 
A|-5--4--5--7------5-4-5-7---------------------------------------------------| 
E|-------5--7----------5-7---------------------------------------------------| 

chorus: wait and see that you are.... 
e|---------------------------------------------------------------------------| 
B|---------------------------------------------------------------------------| 
G|--------77---------77------------------------------------------------------| 
D|-555555-77-7777777-77------------------------------------------------------| 
A|-555555-00-7777777-00------------------------------------------------------| 
E|-555555-00-7777777-00------------------------------------------------------| 

or this 
chorus: wait and see that you are.... 
e|---------------------------------------------------------------------------| 
B|---------------------------------------------------------------------------| 
G|-777777-77-7777777-77------------------------------------------------------| 
D|-555555-77-7777777-77------------------------------------------------------| 
A|-555555-00-7777777-00------------------------------------------------------| 
E|-555555-00-7777777-00------------------------------------------------------| 

places the you knew you......... 
e|---------------------------------------------------------------------------| 
B|---------------------------------------------------------------------------| 
G|-4-6-7-7-4-6-7-7-----------------------------------------------------------| 
D|-x-x-x-x-x-x-x-x-----------------------------------------------------------| 
A|-2-4-5-4-2-4-5-4-----------------------------------------------------------| 
E|---------------------------------------------------------------------------| 


e|---------------------------------------------------------------------------| 
B|---------------------------------------------------------------------------| 
G|---------------------------------------------------------------------------| 
D|-0000000-0000000-0000000-0000000-0--0--0--0--00000000-0--0--0--0-----------| 
A|-5555555-7777777-9999999-7777777-10-10-10-10-55555555-12-12-12-12----------| 
E|---------------------------------------------------------------------------| 
wait and see that you are inside of.. 
e|---------------------------------------------------------------------------| 
B|---------------------------------------------------------------------------| 
G|------7------7--------------------77----------77---------------------------| 
D|-5555-7-7777-7-repeat----55555555-77-77777777-77--repeat-------------------| 
A|-5555-0-7777-0-then-this-55555555-00-77777777-00---------------------------| 
E|-5555-0-7777-0-----------55555555-00-77777777-00---------------------------| 

or play this 

e|---------------------------------------------------------------------------| 
B|---------------------------------------------------------------------------| 
G|-7777-7-7777-7-----------77777777-77-77777777-77---------------------------| 
D|-7777-7-7777-7-repeat----55555555-77-77777777-77--repeat-------------------| 
A|-5555-0-7777-0-then-this-55555555-00-77777777-00---------------------------| 
E|-5555-0-7777-0-----------55555555-00-77777777-00---------------------------| 

places the you knew you......... 
e|---------------------------------------------------------------------------| 
B|---------------------------------------------------------------------------| 
G|-4-6-7-7-4-6-7-7-----------------------------------------------------------| 
D|-x-x-x-x-x-x-x-x-----------------------------------------------------------| 
A|-2-4-5-4-2-4-5-4-----------------------------------------------------------| 
E|---------------------------------------------------------------------------| 

then use those the pattern is weird to put here figure it out by using 
only these three notes 
e|---------------------------------------------------------------------------| 
B|---------------------------------------------------------------------------| 
G|---------------------------------------------------------------------------| 
D|--12-12-11-11-9-9----------------------------------------------------------| 
A|---------------------------------------------------------------------------| 
E|---------------------------------------------------------------------------| 

end with these its either one of those two 

e|---------------------------------------------------------------------------| 
B|---------------------------------------------------------------------------| 
G|--7------------------------------------------------------------------------| 
D|--7------slide-towards-first-fret------------------------------------------| 
A|--5------------------------------------------------------------------------| 
E|---------------------------------------------------------------------------|
            
Hard to play? Try these video lessons and learn fast. | Correct




comments powered by Disqus
↑ Back to top | Tablatures and chords are parodies/interpretations of the original songs. You may use it for private study, scholarship, research or language learning purposes only