» » »

Early November, Fluxy Bass tabs (ver.1)

Artists:  A B C D E F G H I J K L M N O P Q R S T U V W X Y Z # 

Fluxy Bass tabs (ver.1)

Early November Tabs
Rating:
4/5 (2 votes)
Fluxy lessons Tabs too difficult? Try these video lessons and learn fast
                              
For your questions or suggestions,just PM or Text me!!
Please Rate...

Gtr.Legends:
~ - let it ring
. - palm muting
/ - slide to nowhere

Gtr.Tuning:Drop D(Alternative)
           The tuning should be in half-step tuning but I made this tab in Drop D Tuning.
 
Intro prt.1:
Bass Enters:
G|--------------|
D|--------------|
A|--------------|
D|-11~~~~~~~~---|

Intro prt.2
G|---------------------------------------------------------|
D|---------------------------------------------------------|
A|---------------------------------------------------------|
D|-4444-3-66666-5--4444-3-66666-5-44444-3-66666-11-11-11---|

Verse:
G|-----------------------------------|
D|-----------------------------------|
A|-444444-66--33333-44---------------| 2x
D|---------------------44444-66666---|

G|---------------------------------------------------------------|
D|---------------------------------------------------------------|
A|--------------------------4-----------------------------6666---|
D|-44444-66666--44444-66666-----44444-666666--44444-66666--------|

Bridge:
G|-----------------------|
D|-----------------------|
A|-----------------------|
D|-11~--11~--11~---11~---|

G|--------------------------------|
D|--------------------------------| 2x
A|--------------------------------|
D|-444--444--22--666--666--1111---|

G|---------------------------------------------------------------|
D|---------------------------------------------------------------|
A|--------------------------4-----------------------------6666---|
D|-44444-66666--44444-66666-----44444-666666--44444-66666--------|

Repeat Intro prt.2

Outro:
G|----------------------------------------------------------------|
D|----------------------------------------------------------------|
A|----------------------------------------------------------------|
D|-4-4-4-4-4-4---6-6-6-6-6-6---4-4-4-4-4--6-6-6-6-6--guitar--6/---| 
   . . . . . .   . . . . . .   . . . . .  

End...

I love this song so much...it reminds my Past
            

comments powered by Disqus
↑ Back to top | Early November Bass for Fluxy. Lyrics for acoustic guitar and electric guitar. Tablatures and chords are parodies/interpretations of the original songs. You may use it for private study, scholarship, research or language learning purposes only