» » »

Early November, Ever So Sweet Tabs (ver.2)

Artists:  A B C D E F G H I J K L M N O P Q R S T U V W X Y Z # 

Ever So Sweet Tabs (ver.2)

Early November Tabs
Rating:
3/5 (7 votes)
Ever So Sweet lessons Tabs too difficult? Try these video lessons and learn fast
                The notes are played once, the chords are repeated indefinately.
I just found a friend...
eb--------0-------------0-----------0---0-----0-----0-------------------------|
Bb--------0-------------0-0-------------0-----0-----0-------------------------|
Gb--------1-------------2---2---2-------2-----6-----4-------------------------|
Db-5^-----2---------2---2---------2-----2-----6-----4-------------------------|
Ab-5^-----2-----2/4-----0-----0---------0-----4-----2-------------------------|
Eb-5^-----0-------------0---------------0-----0-----0-------------------------|

When they say...
-0-------------0-------------0---0-----0-----0-----0--------------------------|
-0-------------0-0---0-----------0-----0-----0-----0--------------------------|
-1-------------2---2-----2-------2-----6-----4-----2--------------------------|
-2---------2---2-----------2-----2-----6-----4-----2--------------------------|
-2-----2/4-----0-------0---------0-----4-----2-----0--------------------------|
-0-------------0-----------------0-----0-----0-----0--------------------------|

Ooh...
-0--------------------0--------------------0--------------------0-------------|
-0--------------------0--------------------0--------------------0-------------|
-1--------------------2--------------------6--------------------4-------------|
-2--------------------2--------------------6--------------------4-------------|
-2--------------------0--------------------4--------------------2-------------|
-0--------------------0--------------------0--------------------0-------------|

Ever so sweet, you make this seem...
Pickstroke, then the chord.
-0-------------------------0--------------------0--------------------0--------|
--0------------------------0--------------------0--------------------0--------|
---1-----------------------2--------------------6--------------------4--------|
----2----------------------2--------------------6--------------------4--------|
-----2---------------------0--------------------4--------------------2--------|
------0--------------------0--------------------0--------------------0--------|

And I'll miss...I'll miss you so good...
-0---------------0---------------0---------------0---------------0------------|
-0---------------0---------------0---------------0---------------0------------|
-1---------------2---------------6---------------4---------------2------------|
-2---------------2---------------6---------------4---------------2------------|
-2---------------0---------------4---------------2---------------0------------|
-0---------------0---------------0---------------0---------------0------------|

Ever so sweet, you baked in cakes...                                        x2
-0-------0-------0-------0----------0----------0----------0-------------------|
-0-------0-------0-------0----------0----------0----------0-------------------|
-1-------6-------4-------2----------6----------4----------2-------------------|
-2-------6-------4-------2----------6----------4----------2-------------------|
-2-------4-------2-------0----------4----------2----------0-------------------|
-0-------0-------0-------0----------0----------0----------0-------------------|

This is the whole bridge part, just these two chords repeated.
------------------------------------------------------------------------------|
------------------------------------------------------------------------------|
-6----------------------------------------------------------------------------|
-6-----4----------------------------------------------------------------------|
-4-----4----------------------------------------------------------------------|
-------2----------------------------------------------------------------------|

Ever so sweet, you baked it in cakes...                                     x2
-0-------0-------0-------0----------0----------0----------0-------------------|
-0-------0-------0-------0----------0----------0----------0-------------------|
-1-------6-------4-------2----------6----------4----------2-------------------|
-2-------6-------4-------2----------6----------4----------2-------------------|
-2-------4-------2-------0----------4----------2----------0-------------------|
-0-------0-------0-------0----------0----------0----------0-------------------|

Ending
-0--------------------0-------------------------------------------------------|
-0--------------------0-------------------------------------------------------|
-2--------------------1-------------------------------------------------------|
-2--------------------2-------------------------------------------------------|
-0--------------------2-------------------------------------------------------|
-0--------------------0-------------------------------------------------------|
            
Submit corrections

comments powered by Disqus
↑ Back to top | Early November Tabs for Ever So Sweet. Lyrics for acoustic guitar and electric guitar. Tablatures and chords are parodies/interpretations of the original songs. You may use it for private study, scholarship, research or language learning purposes only