» » »

Ever So Sweet Tabs (ver.3)

Artists:  A B C D E F G H I J K L M N O P Q R S T U V W X Y Z # 

Ever So Sweet Tabs (ver.3)

Early November
Rating:
2.8/5 (46 votes)

Tabs too difficult? Try these video lessons and learn fast.
                -------------------------------------------------------------------------------
                             Ever So Sweet - The Early November
-------------------------------------------------------------------------------

Tuning: DADGBE

:Verse:
(Strumming pattern not shown)
e|12~-|-0----------------------------------------------------------------------|
B|12~-|-0----------------------------------------------------------------------|
G|12~-|-1----------------------------------------------------------------------|
D|12~-|-2----------------------------------------------------------------------|
A|12~-|-2----------------------------------------------------------------------|
E|----|-x----------------------------------------------------------------------|
(Don't play bar chord second time)

Then Ace does some picking I think goes like...
e|-----------0-----------0~----0-0---------------------------------------------|
B|-----------0------0-----------0-0--------------------------------------------|
G|-----------2--2-----2---------2-2--------------------------------------------|
D|-------2---2---2-------------2-2---------------------------------------------|
A|-2h4-2-----0---------0--------0-0--------------------------------------------|
E|-----------------------------------------------------------------------------|

Then...(Strumming pattern not shown)
e|-0---0---0------------------------------------------------------------------|
B|-0---0---0------------------------------------------------------------------|
G|-6---4---2------------------------------------------------------------------|
D|-6---4---2------------------------------------------------------------------|
A|-4---2---0------------------------------------------------------------------|
E|----------------------------------------------------------------------------|

^Play twice

:Pre-chorus:
(Strumming pattern not shown)
e|-0---0---0---0-----------------------------------------------------------------|
B|-0---0---0---0-----------------------------------------------------------------|
G|-1---2---6---4-----------------------------------------------------------------|
D|-2---2---6---4-----------------------------------------------------------------|
A|-2---0---4---2-----------------------------------------------------------------|
E|-x-----------------------------------------------------------------------------|

^Play 3x

End on:
e|-0--------------------------------------------------------------------------|
B|-0--------------------------------------------------------------------------|
G|-2--------------------------------------------------------------------------|
D|-2--------------------------------------------------------------------------|
A|-0--------------------------------------------------------------------------|
E|----------------------------------------------------------------------------|

e|-0-0---0--0----x-x--0-0-0-0-0-0-0--0-0-0-0--0--0--0--|
B|-0-0---0--0----x-x--0-0-0-0-0-0-0--0-0-0-0--0--0-----|
G|-1-1---1--1----x-x--6-6-6-4-4-4-2--2-2-2-2--2--2-----|
D|-2-2---2--2----x-x--6-6-6-4-4-4-2--2-2-2-2--2--2-----|
A|-2-2---2--2----x-x--4-4-4-2-2-2-0--0-0-0-0--0--0-----|
E|-x-x---x--x----x-x-----------------------------------|

Then...(Strumming pattern not shown)
e|-0---0---------------------------------------------------------------------|
B|-0---0---------------------------------------------------------------------|
G|-6---4---------------------------------------------------------------------|
D|-6---4---------------------------------------------------------------------|
A|-4---2---------------------------------------------------------------------|
E|---------------------------------------------------------------------------|

End Chorus with:
e|--0~-------------------------------------------------------------------------|
B|--0~-------------------------------------------------------------------------|
G|--2~-------------------------------------------------------------------------|
D|--2~-------------------------------------------------------------------------|
A|--0~-------------------------------------------------------------------------|
E|-----------------------------------------------------------------------------|


:Bridge:
(Theres palm muting and pulling the palm muting off in this part, but it's easy to 
out. It soon turns into just no palm muting but here are the chords)
e|--0--0-------------------------------------------------------------------------|
B|--0--0-------------------------------------------------------------------------|
G|--6--6-------------------------------------------------------------------------|
D|--6--6-------------------------------------------------------------------------|
A|--4--4-------------------------------------------------------------------------|
E|-----4-------------------------------------------------------------------------|

-Play chorus twice-

End on:
e|--0-0--0~----------------------------------------------------------------------|
B|--0-0--0~----------------------------------------------------------------------|
G|--2-2--2~----------------------------------------------------------------------|
D|--2-2--2~----------------------------------------------------------------------|
A|--0-0--1~----------------------------------------------------------------------|
E|-------------------------------------------------------------------------------|

| /  slide up
| \  slide down
| h  hammer-on
| p  pull-off
| ~  vibrato
| +  harmonic
| x  Mute note
| .  Palm Mute
===============================================================================
            
Tabs too difficult? Try these video lessons and learn fast.




comments powered by Disqus
↑ Back to top | Tablatures and chords are parodies/interpretations of the original songs. You may use it for private study, scholarship, research or language learning purposes only