» » »

Early November, Come Back Tabs (ver.2)

Artists:  A B C D E F G H I J K L M N O P Q R S T U V W X Y Z # 

Come Back Tabs (ver.2)

Early November Tabs
Rating:
1/5 (1 vote)
Come Back lessons Tabs too difficult? Try these video lessons and learn fast
                                                Come Back, by
                              The Early November        If any mistakes
                                                           tell me at
(Intro-X1)
e:----------------------------------------------|
b:--------------------------3----3----3----3----|      (do that once,
g:------0----0----0----0---0-0--0-0--0-0--0-0---|    then start singing)
d:-----4-4--4-4--4-4--4-4-----------------------|
a:----5----5----0----0--------------------------|
D:------------------------5----5----5----5------|

(Verse 1)
e:--------------------------------------------------------|
b:----------------------------------3----3----3----3------|
g:------0-------0------0------0----0-0--0-0--0-0--0-0-----|
d:-----4-4----4-4----4-4----4-4---------------------------|
a:----5------5------0------0------------------------------|
D:--------------------------------5----5----5----5--------|
           Looking in your eyes...
e:--------------------------------------------------------|
b:----------------------------------3----3----3----3------|
g:------0------0------0------0-----0-0--0-0--0-0--0-0-----|
d:-----4-4----4-4----4-4----4-4---------------------------|
a:----5------5------0------0------------------------------|
D:--------------------------------5----5----5----5--------|
     Praising every moment because your my only light...
e:--------------------------------------------------------|
b:----------------------------------3----3----3----3------|
g:------0------0------0------0-----0-0--0-0--0-0--0-0-----|
d:-----4-4----4-4----4-4----4-4---------------------------|
a:----5------5------0------0------------------------------|
D:--------------------------------5----5----5----5--------|
     Reading through stares at your passion that bears me now...
e:--------------------------------------------------------|
b:----------------------------------3----3----3----3------|
g:------0------0------0------0-----0-0--0-0--0-0--0-0-----|
d:-----4-4----4-4----4-4----4-4---------------------------|
a:----5------5------0------0------------------------------|
D:--------------------------------5----5----5----5--------|
Shedding no little tears, the silence scares us more than leaving could...

(Chorus)
e:---------------------------------------------------------|
b:---------------------------------------------------------|
g:---7-7---7---7-7--7--7---7--7--7-7-7-7-------------------|
d:---7-7---7---7-7--7--7---7--7--7-7-7-7-------------------|
a:---5-5---5---7-7--7--7---5--5--5-5-5-5-------------------|
D:-------------------------5--5--5-5-5-5-------------------|
 "Come Back", please don't leave me now, I'll be all that you need
e:---------------------------------------------------------|
b:---------------------------------------------------------|
g:---7-7---7---7-7--7--7---7--7--7-7-7-7-------------------|
d:---7-7---7---7-7--7--7---7--7--7-7-7-7-------------------|
a:---5-5---5---7-7--7--7---5--5--5-5-5-5-------------------|
D:-------------------------5--5--5-5-5-5-------------------|
 (in life)Because I can't live without you and...
e:---------------------------------------------------------|
b:---------------------------------------------------------|
g:---7-7---7---7-7--7--7---7--7--7-7-7-7-------------------|
d:---7-7---7---7-7--7--7---7--7--7-7-7-7-------------------|
a:---5-5---5---7-7--7--7---5--5--5-5-5-5-------------------|
D:-------------------------5--5--5-5-5-5-------------------|
 I know all that you need, I can give you everything...
e:---------------------------------------------------------|
b:---------------------------------------------------------|
g:---7-7---7---7-7--7--7---7--7--7-7-7-7-------------------|
d:---7-7---7---7-7--7--7---7--7--7-7-7-7-------------------|
a:---5-5---5---7-7--7--7---5--5--5-5-5-5-------------------|
D:-------------------------5--5--5-5-5-5-------------------|
 When your so far you'll forget about me.......

(Verse 2)
e:----------------------------------------------------------|
b:----------------------------------3----3----3----3--------|
g:------0------0------0------0-----0-0--0-0--0-0--0-0-------|
d:-----4-4----4-4----4-4----4-4-----------------------------|
a:----5------5------0------0--------------------------------|
D:--------------------------------5----5----5----5----------|
     Waiting by your side...
e:----------------------------------------------------------|
b:----------------------------------3----3----3----3--------|
g:------0------0------0------0-----0-0--0-0--0-0--0-0-------|
d:-----4-4----4-4----4-4----4-4-----------------------------|
a:----5------5------0------0--------------------------------|
D:--------------------------------5----5----5----5----------|
  Knowing every moment is closer to your flight...
e:----------------------------------------------------------|
b:----------------------------------3----3----3----3--------|
g:------0------0------0------0-----0-0--0-0--0-0--0-0-------|
d:-----4-4----4-4----4-4----4-4-----------------------------|
a:----5------5------0------0--------------------------------|
D:--------------------------------5----5----5----5----------|
   Upset with the past, but it's all that holds us now...
e:----------------------------------------------------------|
b:----------------------------------3----3----3----3--------|
g:------0------0------0------0-----0-0--0-0--0-0--0-0-------|
d:-----4-4----4-4----4-4----4-4-----------------------------|
a:----5------5------0------0--------------------------------|
D:--------------------------------5----5----5----5----------|
  Believing no lies, telling eachother we'll be...fine-forever

(Chorus-again-)
e:----------------------------------------------------------|
b:----------------------------------------------------------|
g:---7-7---7---7-7--7--7---7--7--7-7-7-7--------------------|
d:---7-7---7---7-7--7--7---7--7--7-7-7-7--------------------|
a:---5-5---5---7-7--7--7---5--5--5-5-5-5--------------------|
D:-------------------------5--5--5-5-5-5--------------------|
 "Come Back", please don't leave me now, I'll be all that you need
e:----------------------------------------------------------|
b:----------------------------------------------------------|
g:---7-7---7---7-7--7--7---7--7--7-7-7-7--------------------|
d:---7-7---7---7-7--7--7---7--7--7-7-7-7--------------------|
a:---5-5---5---7-7--7--7---5--5--5-5-5-5--------------------|
D:-------------------------5--5--5-5-5-5--------------------|
 (in life)Because I can't live without you and...
e:----------------------------------------------------------|
b:----------------------------------------------------------|
g:---7-7---7---7-7--7--7---7--7--7-7-7-7--------------------|
d:---7-7---7---7-7--7--7---7--7--7-7-7-7--------------------|
a:---5-5---5---7-7--7--7---5--5--5-5-5-5--------------------|
D:-------------------------5--5--5-5-5-5--------------------|
 I know all that you need, I can give you everything...
e:----------------------------------------------------------|
b:----------------------------------------------------------|
g:---7-7---7---7-7--7--7---7--7--7-7-7-7--------------------|
d:---7-7---7---7-7--7--7---7--7--7-7-7-7--------------------|
a:---5-5---5---7-7--7--7---5--5--5-5-5-5--------------------|
D:-------------------------5--5--5-5-5-5--------------------|
 When your so far you'll forget about me.......

e:--------------------------------------|
b:--------------------------------------|      (Play once for
g:---7-x--7-7-x--9-9-x--9-9-x-----------|          "getting ready"
d:---7-x--9-9-x--9-9-x--9-9-x-----------|                   I guess)
a:---5-x--5-5-x--5-5-x--5-5-x-----------|
D:---------------5-5-x--5-5-x-----------|

e:----------------------------------------------------------|
b:----------------------------------------------------------|
g:---7-x--7-7-x--9-9-x--9-9-x-------------------------------|
d:---7-x--9-9-x--9-9-x--9-9-x-------------------------------|
a:---5-x--5-5-x--5-5-x--5-5-x-------------------------------|
D:---------------5-5-x--5-5-x-------------------------------|
  But I'll Wait..
e:----------------------------------------------------------|
b:----------------------------------------------------------|
g:---7-x--7-7-x--9-9-x--9-9-x-------------------------------|
d:---7-x--9-9-x--9-9-x--9-9-x-------------------------------|
a:---5-x--5-5-x--5-5-x--5-5-x-------------------------------|
D:---------------5-5-x--5-5-x-------------------------------|
  I could never believe...
e:----------------------------------------------------------|
b:----------------------------------------------------------|
g:---7-x--7-7-x--9-9-x--9-9-x-------------------------------|
d:---7-x--9-9-x--9-9-x--9-9-x-------------------------------|
a:---5-x--5-5-x--5-5-x--5-5-x-------------------------------|
D:---------------5-5-x--5-5-x-------------------------------|
  Your beautifull eyes...
e:----------------------------------------------------------|
b:----------------------------------------------------------|
g:---7-x--7-7-x--9-9-x--9-9-x-------------------------------|
d:---7-x--9-9-x--9-9-x--9-9-x-------------------------------|
a:---5-x--5-5-x--5-5-x--5-5-x-------------------------------|
D:---------------5-5-x--5-5-x-------------------------------|
  I know your sorry...
e:----------------------------------------------------------|
b:----------------------------------------------------------|
g:---7-x--7-7-x--9-9-x--9-9-x-------------------------------|
d:---7-x--9-9-x--9-9-x--9-9-x-------------------------------|
a:---5-x--5-5-x--5-5-x--5-5-x-------------------------------|
D:---------------5-5-x--5-5-x-------------------------------|
  I know what you must be going through...
e:----------------------------------------------------------|
b:----------------------------------------------------------|
g:---7-x--7-7-x--9-9-x--9-9-x-------------------------------|
d:---7-x--9-9-x--9-9-x--9-9-x-------------------------------|
a:---5-x--5-5-x--5-5-x--5-5-x-------------------------------|
D:---------------5-5-x--5-5-x-------------------------------|
 And I feel so sorry for you...
e:----------------------------------------------------------|
b:----------------------------------------------------------|
g:---7-x--7-7-x--9-9-x--9-9-x--or-7-x--7-7--9-x-9-9---------|
d:---7-x--9-9-x--9-9-x--9-9-x-----7-x--7-7--9-x-9-9---------|
a:---5-x--5-5-x--5-5-x--5-5-x-----5-x--x-x--5-x-5-5---------|
D:---------------5-5-x--5-5-x----------7-7--5-x-5-5---------|
  But please don't leave me now...
e:----------------------------------------------------------|
b:----------------------------------------------------------|
g:---7-x--7-7-x--9-9-x--9-9-x--or-7-x--7-7--9-x-9-9---------|
d:---7-x--9-9-x--9-9-x--9-9-x-----7-x--7-7--9-x-9-9---------|
a:---5-x--5-5-x--5-5-x--5-5-x-----5-x--x-x--5-x-5-5---------|
D:---------------5-5-x--5-5-x----------7-7--5-x-5-5---------|
  But please don't leave me now...
e:----------------------------------------------------------|
b:----------------------------------------------------------|
g:---7-x--7-7-x--9-9-x--9-9-x--or-7-x--7-7--9-x-9-9---------|
d:---7-x--9-9-x--9-9-x--9-9-x-----7-x--7-7--9-x-9-9---------|
a:---5-x--5-5-x--5-5-x--5-5-x-----5-x--x-x--5-x-5-5---------|
D:---------------5-5-x--5-5-x----------7-7--5-x-5-5---------|
  Please don't leave me now...

               What a kick A** Song!!!

Notes:
   X stands for like muffled-string-strum. For the words, they're not rythmicly correct,
i did try and put the words where the first start.( If that makes any sense ), but it's
Stumming...those are the stum patterns that I use, and it sounds nice and right at the 
time, but once you got the chords you can pretty much do what sounds right.

Drop D:
   For those of you who don't know how to tune down to drop D.  Hold down the 7th fret
the big E string(6th), and pluck the A string(5th). Make them sound the same.
            

comments powered by Disqus
↑ Back to top | Early November Tabs for Come Back. Lyrics for acoustic guitar and electric guitar. Tablatures and chords are parodies/interpretations of the original songs. You may use it for private study, scholarship, research or language learning purposes only