» » »

Early November, Come Back Tabs (ver.3)

Artists:  A B C D E F G H I J K L M N O P Q R S T U V W X Y Z # 

Come Back Tabs (ver.3)

Early November Tabs
 Rating:
4/5 (4 votes)
Come Back lessons Tabs too difficult? Try these video lessons and learn fast
                -----------------------------------------------------------------------
                   The Early November- Come Back
-----------------------------------------------------------------------
Tuning: Half Step Down, Drop D (DbAbDbGbBbEb)

Amazing song, just watch out for the strumming in the chorus =P.

Intro/Verse:
E|---------------------------------------------------------------------|
B|---------------------------------------------------------------------|
G|------6-------6-------6-------6--------7-------7--------7--------7---|X 6
D|----6---6---6--6----6---6---6---6----7---7---7---7----7---7----7---7-|
A|--4-------4-------0-------0------------------------------------------|
D|-----------------------------------5-------5--------5--------5-------|
  (Looking in your eyes...)


Alright, watch out for the strumming on this part, but find it out on your own =P.  
it stresses out (down strum) on the last strum of that part.
Chorus:
Eb|--------------------------------------------------------------------|
Bb|--------------------------------------------------------------------|
Gb|--7--------------------7------------7-------------------------------|X 4
Db|--7--- X 10 i think ---7--- X 10 ---7--- X 10 ----------------------|
Ab|--5--------------------0------------x-------------------------------|
Db|------------------------------------5-------------------------------|
   (Come Back, Please dont leave me...)


Intro/Verse:
E|---------------------------------------------------------------------|
B|---------------------------------------------------------------------|
G|------6-------6-------6-------6--------7-------7--------7--------7---|X 6
D|----6---6---6--6----6---6---6---6----7---7---7---7----7---7----7---7-|
A|--4-------4-------0-------0------------------------------------------|
D|-----------------------------------5-------5--------5--------5-------|
  (Waiting by your side...)


Chorus:
Eb|--------------------------------------------------------------------|
Bb|--------------------------------------------------------------------|
Gb|--7--------------------7------------7-------------------------------|X 4
Db|--7--- X 10 i think ---7--- X 10 ---7--- X 10 ----------------------|
Ab|--5--------------------0------------x-------------------------------|
Db|------------------------------------5-------------------------------|
   (Come Back, Please dont leave me...)


Bridge:
Eb|--------------------------------------------------------------------|
Bb|--------------------------------------------------------------------|
Gb|--7---------------7------------7------------------------------------|X 9
Db|--7--- X 4 -------7--- X 4---- 7--- X 4 ----------------------------|
Ab|--x---------------5------------0------------------------------------|
Db|--5-----------------------------------------------------------------|
   (But ill wait, i could never leave your beautiful eyes...)


Outro:
Eb|--------------------------------------------------------------------|
Bb|--------------------------------------------------------------------|
Gb|--7---------------7------------7~-----------------------------------|X 1
Db|--7--- X 4 -------7--- X 4---- 7~-----------------------------------|
Ab|--x---------------0------------5~-----------------------------------|
Db|--5-----------------------------------------------------------------|
   (Please dont leave me now...)

Thanks for your time =P.



| /  slide up
| \  slide down
| h  hammer-on
| p  pull-off
| ~  vibrato
| +  harmonic
| x  Mute note
============================================================================
            
Submit corrections

comments powered by Disqus
↑ Back to top | Early November Tabs for Come Back. Lyrics for acoustic guitar and electric guitar. Tablatures and chords are parodies/interpretations of the original songs. You may use it for private study, scholarship, research or language learning purposes only