» » »

Eagles Of Death Metal, Bad Dream Mama Tabs (ver.1)

Artists:  A B C D E F G H I J K L M N O P Q R S T U V W X Y Z # 

Bad Dream Mama Tabs (ver.1)

Eagles Of Death Metal Tabs
 Rating:
4/5 (5 votes)
Bad Dream Mama lessons Tabs too difficult? Try these video lessons and learn fast
                (Intro)
Eagles of Death Metal
Bad Dream Mama
Peace Love Death Metal


Tuning Open G
DGDGBd

d --|--------------------------|----------------------|
B --|--------------------------|----------------------|
G --|-7-------10----10----7--7-|-3--------------------|
D --|-7-------7-----7--7--7--7-|-3--3--5--3--6--3--5--|
G --|-7----7--7--7--7--7--7--7-|-3--3--3--3--3--3--3--|
D --|--------------------------|----------------------|


                                  bend 1/4 tone
d --|--------------------------|----------------------|
B --|--------------------------|----------------------|
G --|-7-------10----10----7--7-|-4--7/-7/-7/-7/-7/-7/-|
D --|-7-------7-----7-----7--7-|-4--4-----------------|
G --|-7----7--7--7--7--7--7--7-|-4--4-----------------|
D --|--------------------------|----------------------|

d --|--------------------------|----------------------|
B --|--------------------------|----------------------|
G --|-7-------10----10----7--7-|-0--------------------|
D --|-7-------7-----7-----7--7-|-0--0--2--0--3/-0--2--|
G --|-7----7--7--7--7--7--7--7-|-0--0--0--0--0--0--0--|
D --|--------------------------|----------------------|

d --|---------------------------|---------------------|
B --|-3--3--3--3--3--5--5--5--5-|---------------------|
G --|-3--3--3--5--3--5--5--7--5-|-7-------10----10----|
D --|-3--3--3--3--3--5--5--5--5-|-7----7--7--7--7--7--|
G --|-3--3--3--3--3--5--5--5--5-|-7----7--7--7--7--7--|
D --|---------------------------|---------------------|
            
Submit corrections

comments powered by Disqus
↑ Back to top | Eagles Of Death Metal Tabs for Bad Dream Mama. Lyrics for acoustic guitar and electric guitar. Tablatures and chords are parodies/interpretations of the original songs. You may use it for private study, scholarship, research or language learning purposes only