» » »

Eagles, Witchy Woman Chords (ver.2)

Artists:  A B C D E F G H I J K L M N O P Q R S T U V W X Y Z # 

Witchy Woman Chords (ver.2)

Eagles Tabs
 Rating:
4/5 (4 votes)
Witchy Woman lessons Tabs too difficult? Try these video lessons and learn fast
1
                ----------------------------------------------------------------
                        Witchy Woman - Eagles
-----------------------------------------------------------------


Tuning:standard


Intro:

    Gm                    Dm7  Dm          Dm7  Dm          C   Bb   Gm
e|--3----------3-----------1---1---1--------1---1---1-----------------3---|
B|--3----------3-----------1---3---3--------1---3---3--------5---3----3---|
G|--3----------3-----------2---2---2--------2---2---2--------5---3----3---|
D|--5----------5-----------0---0---0--------0---0---0--------5---3----5---|
A|-------5--5-------5--5-------------------------------------3---1----5---|
E|-------3--3-------3--3----------------------------------------------3---|

    Gm                    Dm7  Dm          Dm7  Dm           C   Bb   C
e|--3----------3-----------1---1---1--------1---1---1---------------------|
B|--3----------3-----------1---3---3--------1---3---3--------5---3----5---|
G|--3----------3-----------2---2---2--------2---2---2--------5---3----5---|
D|--5----------5-----------0---0---0--------0---0---0--------5---3----5---|
A|-------5--5-------5--5-------------------------------------3---1----3---|
E|-------3--3-------3--3--------------------------------------------------|


     Gm
e|------------------------------------|
B|-----------3-x--5-p--3-----x--------|
G|-----------3-x--5-p--3-----x--------|
D|---3-/--5----x-------------x--------|
A|-------------x-------------x--------|
E|---1-/--3----x-------------x--------|   x4


Gm             D7                              C  Bb  Gm
Raven hair and ruby lips, Sparks fly from her finger tips
Gm            D7                                           C  Bb  Gm
Echoed voices in the night, She's a restless spirit on an endless flight


Gm         D7/F   D7     D7/F   D7        C   Bb   Gm
Wooo hooo witchy woman, see how high she flies
Woo hoo witchy woman she got the moon in her eye

Gm*     D7  -  (riff 1)  

She held me spellbound in the night, Dancing shadows and firelight
Crazy laughter in another room 
And she drove herself to madness, with a silver spoon

Woo hoo witchy woman see how high she flies
Woo hoo witchy woman she got the moon in her eye


Gm*     F6     D7/F#  (x2) (riff 2)    


Solo:
Gm     C    Bb    Gm            Gm     Bb    C    Gm


Gm     F6     D7/F#  (x2)    
Waaahh.... 


Gm     D7/F  D7        D7/F  D7         C   Bb  Gm

Gm     D7/F  D7        D7/F  D7         C   Bb  C
 

Gm
Well I know you want a lover, Let me tell your brother, 
           C               Bb      Gm
She's been sleeping in the devil's bed
Gm
And there's some rumors going round, someone's underground
        Bb               C                    Gm
She can rock you in the night time 'til your skin turns red


Gm      D7                             Gm
Woo hoo witchy woman, see how high she flies
Gm      D7 (riff 3)                           Gm
Woo hoo witchy woman, she got the moon in her eye

D7 (riff 3)   Gm


F*    D*    C*     D*    C*    Bb*    C*     Bb*     F       Gm



************************************


chords:

    Gm*     D7/F    D7/F#    F6    F*    D*    C*    Bb*    
e|---0-------2-------2-------1----------------------------|
B|---3-------1-------1-------3-----10----7-----5-----3----|
G|---3-------2-------2-------2-----10----7-----5-----3----|
D|---0-------3-------0-------0-----10----7-----5-----3----|
A|---2---------------0-------3-----8-----5-----3-----1----|
E|---3---------------2-------1----------------------------|


(riff 1)

    Gm*           D7                                              Gm
e|---0-----0-----2-2----2------2---2---2---2---x---x---x-----------3----|
B|---3-----3-----1-1----1------1---1---1---1---x---x---x-----------3----|
G|---3-----0-----2-2----2------2---2---2---2---x---x---x-----------3----|
D|---0-----0-----3-0----0------3---0---x---0---x---x---x-----------5----|
A|---2-----2---------------------------3-------3---1---3---1-------5----|
E|---3-----3---------------------------------------------------1---3----|


(riff 2)

     1  2  3  4  1  2  3  4  
    Gm*          F6          
e|---0-----0-----1---------|
B|---3-----3-----3---------|
G|---3-----0-----2---------|
D|---0-----0-----0---------|
A|---2-----2-----3---------|
E|---3-----3-----1---------|

     1  &  2  &  3  &  4  &  1  &  2  &  3  &  4  &           
    F6        D7/F#                      Gm
e|---1--------2-----------2--2--2--2-----3---------|
B|---3--------1-----------1--1--1--1-----3---------|
G|---2--------2-----------2--2--2--2-----3---------|
D|---0--------0-----------0--0--0--0-----5---------|
A|---3--------0-----------0--0--0--0-----5---------|
E|---1--------2-----------0--2--0--2-----3---------|



(riff 3)

     D7                                    Gm
e|---2---2---2---2-----2---2---x---x---x---3----|
B|---1---1---1---1-----1---1---x---x---x---3----|
G|---2---2---2---2-----2---2---x---x---x---3----|
D|---3---0---x---0-----x---x---x---x---x---5----|
A|-----------3---------3---1---3---1-------5----|
E|-------------------------------------1---3----|


************************************


| /   slide up
| \   slide down
| h   hammer-on
| p   pull-off
| ~   vibrato
| +   harmonic
| x   Mute note
| b   Bend
| pb  Pre-bend
| br  Bend release
| pbr Pre-bend release
| brb Bend release bend

************************************
            
Submit corrections

comments powered by Disqus
↑ Back to top | Eagles Chords for Witchy Woman. Lyrics for acoustic guitar and electric guitar. 1 Tablatures and chords are parodies/interpretations of the original songs. You may use it for private study, scholarship, research or language learning purposes only