>
 >
Witchy Woman

Witchy Woman Bass Tabs

Eagles - Witchy Woman chords, tabs, tablatures, lyrics

Guitar lessons | Add/correct | Request | Top 50 tabs Artists:  A B C D E F G H I J K L M N O P Q R S T U V W X Y Z 0-9

Witchy Woman Bass Tabs – Eagles

CD, Sheet music, Poster

Do you like Witchy Woman? Share with your friends now
Bass TabsChordsChords v2TabsTabs v2Tabs v3Ukulele
G||------------------|----------------|----------------|----------------|| 
D||4-----------------|----------------|----------------|---------------*|| 
A||4-----------------|----------------|----------------|---------------*|| 
E||--3-------3-------|3-------3-------|3-------3-------|3-------3-------|| 
Rh:  +   +   +   +    +   +   +   +    +   +   +   +    +   +   +   +     

 ________________ 
|2.                            Play 4x   g          g 
G|----------------||----------||----------------------------------|| 
D|----------------||2---------||4-5-------r---5-5-----------------|| 
A|------3---------||4---------||4-----------------5-------r---5-5-|| 
E|3---------------||----------||----------------------------------|| 
 +   + & +   +       +   +       +       + e & a +       + e & a         


Verse 1: 
                                           g 
G||----------------|----------------|----------------|----------------| 
D||5---r-5-5---r---|----------------|----------------|----------------| 
A||----------------|5---r-5-5---r---|5---r-5-5---r---|3-------------5-| 
E||----------------|----------------|--------------6-|--6---3---------| 
  +   + & +   +    +   +   +   +    +   +   +   +    +   +   +   +      

                    g 
G|----------------|----------------|----------------|----------------| 
D|5---r-5-5---r---|----------------|----------------|----------------| 
A|--------------3-|5---r-5-5---r-3-|5---r-5-5---r---|3---------------| 
E|----------------|----------------|--------------6-|--6---3---------| 
 +   +   +   +    +   +   +   +    +   +   +   +    +   +   +   +     

Chorus 1: 
without rests marked 

     g 
G||----------------|----------------|----------------|----------------|| 
D||7b8---7-5-------|3---------------|3---------------|---------------*|| 
A||--------------5-|--5---5---5---5-|--5---5---5-----|3--------------*|| 
E||----------------|----------------|--------------6-|--6---3---------|| 
  +   +   +   +    +   +   +   +    +   +   +   +    +   +   +   +   

      g                        g 
G|----------------|--------------------------------|----------------| 
D|7b8---7-5-------|3-------------------------------|3---------------| 
A|--------------5-|----5-------5-------5---5-5-5---|--5-3-5---3---3-| 
E|----------------|--------------------------------|------------6---| 
 +   +   +   +    +   &   +   &   +   &   + e & a  + & + & + & + &      

     g 
G|----------------| 
D|----------------| 
A|--------------5-| 
E|--6-3-3---------| 
 +   +   +   +   

Verse2: 
          g                     g 
G||--------------------------------|--------------------------------| 
D||5-----------5-5-5---5-----------|--------------------------------| 
A||----------------------------3---|5-----------5-5-5----5------3---| 
E||--------------------------------|--------------------------------| 
  +       + e & a +   &   +   &    +       +       +       +               

         g                                 g 
G|--------------------------------|---------------------------------|| 
D|--------------------------------|--------------------------------*|| 
A|5-----------5-5-5----5----------|3---------------------------5---*|| 
E|----------------------------6---|----6-------3--------------------|| 
 +       +       +       +        +       +       +       +         

Chorus 2: 

     g 
G||----------------|----------------|----------------|----------------|| 
D||7b8---7-5-------|3---------------|3---------------|---------------*|| 
A||--------------5-|--5---5---5---5-|--5---5---5-----|3--------------*|| 
E||----------------|----------------|--------------6-|--6---3---------|| 
  +   + & +   + &  +   +   +   +    +   +   +   +    +   +   +   +   

Guitar solo: 

G||----------------|----------------|----------------|----------------| 
D||----------------|----------------|----------------|----------------| 
A||1-----1-1-------|----------------|----------------|----------------| 
E||--------------0-|1-1---1---------|1-1---1---2---0-|2-0-2---3-------| 
  +   +   +   +    +   +   +   +    +   +   +   +    +   +   +   +    

G|----------------|--------------------------------|----------------| 
D|----------------|--------------------------------|----------------| 
A|1-----1-1-------|--------------------------------|----------------| 
E|--------------0-|1---1-------1---1-----------0-1-|1-1---1---2---0-| 
 +   +   +   +    +   &   +   &   +       + e & a  + & + & + & + & 

G|----------------| 
D|----------------| 
A|----------------| 
E|2-0-2---3-------| 
 +   +   +   +     

         g                       g 
G|----------------------------7/|12-----------------------------| 
D|5-----------------------------|-------------------------------| 
A|------------5-5-5---5---------|------------5-5-5---5-------5--| 
E|------------------------------|-------------------------------| 
 +       +   & a +   &   +   &   +       +       +       +        

         g 
G|--------------------------------|-------------------------------| 
D|--------------------------------|------------------3-----3------| 
A|3-----------3p2-1---------------|--------------3h5---5------5---| 
E|----------------------------2---|3------------------------------| 
 +       +       +       +        +       +   & a +   &   +   &    
         g                      g 
G|<12>----------------------------|<12>---------------------------| 
D|--------------------------------|-------------------------------| 
A|--------------5-5---5-----------|--------------5-5---5----------| 
E|--------------------------------|-------------------------------| 
 +       +       +       +        +       +       +       +        

G|--------------------------------|-------------------------------| 
D|--------------------------------|----------------5p3------------| 
A|1-----------1h2-3---------------|--------------5-----5---3---5--| 
E|----------------------------2---|3------------------------------| 
 +       +       +       +        +       +   & a +   &   +   &    

Bridge: 

G||----------------|----------------|----------------|-----------------|| 
D||5-5-5-5-5-5-5-5-|----------------|----------------|5-5-5-5-5-5-5-5-*|| 
A||----------------|5-5-5-5-5-5-5-5-|5-5-5-5-5-5-5-5-|----------------*|| 
E||----------------|----------------|----------------|-----------------|| 
  + & + & + & + &  +   +   +   +    +   +   +   +    +   +   +   +    

     g                         g 
G||----------------|--------------------------------|----------------| 
D||7b8---7-5-------|3-------------------------------|3---------------| 
A||--------------5-|----5-------5-------5---5-5-5---|--5---5---5-----| 
E||----------------|--------------------------------|--------------6-| 
  +   +   +   +    +   &   +   &   +   &   + e & a  + & + & + & + & 

               g                          g 
G|----------------|----------------|--------------------------------| 
D|----------------|7b8---5-7b8-----|3-------------------------------| 
A|3---------------|--------------5-|----5-------5-------5---5-5-5---| 
E|--6---3---------|----------------|--------------------------------| 
 +   +   +   +    +   +   +   +    +   &   +   &   +   &   + e & a     

G|----------------|----------------| 
D|3---------------|----------------| 
A|--5---5---5-----|3-----3---------| 
E|--------------6-|--6-------------| 
 + & + & + & + &  +   +   +   +    

Verse 3: 
          g         g           g 
G||--------------------------------|-------------------------------| 
D||5-------------------------------|5------------------------------| 
A||--------------5-5---5-------5-5-|--------------5-5---5------5---| 
E||--------------------------------|-------------------------------| 
  +       +   & a +   &   +   & a  +       +       +       +        

    g    g 
G|----------------|--------------------------------| 
D|----------------|--------5-------3-------3-------| 
A|3-----1-1-------|------------3h5---5-------5-5---| 
E|--------------3-|3-------------------------------| 
 +   + & +   + &  +   &   +   & a + e & a + e & a    

          g g                       g g 
G|--------------------------------|-------------------------------| 
D|5-----------5-------------------|5-----------5------------------| 
A|--------------5-5---5-------5---|--------------5-5---5------5---| 
E|--------------------------------|-------------------------------| 
 +       +   & a +   &   +   &    +       +       +       +        

G|----------------|--------------------------------| 
D|----------------|------------------3-----3-------| 
A|1-----2-3-----3-|--------------3h5---5-------5---| 
E|----------------|3-------------------------------| 
 +   + & +   + &  +   &   +   & a + e & a + e & a    

Outro Chorus: 

G||----------------|----------------|----------------| 
D||5-5-5-5-5-5-5---|----------------|3---------------| 
A||--------------5-|5-5-5-5-5-5-5-5-|--5-5-5-5-5-5-3-| 
E||----------------|----------------|----------------| 
  + & + & + & + &  +   +   +   +    +   +   +   + 

G|--------------------------------| 
D|5---5---5---5-----3---------4---| 
A|--------------3h5---5p3-5-------| 
E|--------------------------------| 
 +   &   +   & a + e & a +   & 

G|----------------|----------------|----------------|----------------| 
D|5-5-5-5-5-5-5---|----------------|3---------------|----------------| 
A|--------------5-|5-5-5-5-5-5-5-5-|--5-3-5---3---3-|----------------| 
E|----------------|----------------|------------6---|--6-3-3---------| 
 + & + & + & + &  +   +   +   +    +   +   +   +    +   +   +   +     

                     rit. 
G|----------------|----------------|------------------|----------------|| 
D|3---------------|----------------|------------------|----------------|| 
A|--5-3-5---3---3-|--------------5/|8-----------------|----------------|| 
E|------------6---|--6-3-3---------|--10-8-10---8-6-8-|--6-2-3---------|| 
 +   +   +   +    +   +   +   +    + &  + &  + & +    +   +   +   +





Comments


Popular Eagles tabs & chords
New Kid In Town 2 Bass Tabs
One Of These Nights 1 Bass Tabs
Please Come Home For Christmas Bass Tabs
Try And Love Again 1 Chords
Hotel California 6 Tabs
Please Come Home For Christmas Tabs
Love Will Keep Us Alive Ukulele
New Kid In Town Ukulele
Pretty Maids All In A Row Ukulele
Witchy Women Ukulele


Song lyrics



↑ Back to top | Tablatures and chords are parodies/interpretations of the original songs. You may use it for private study, scholarship, research or language learning purposes only
© 2014 AZChords.com Contact us | Privacy policy | DMCA | Add/correct tabs | Request tabs | Top 50 tabs