» » »

Lyin Eye Bass tabs (ver.3)

Artists:  A B C D E F G H I J K L M N O P Q R S T U V W X Y Z # 

Lyin Eye Bass tabs (ver.3)

Eagles
Rating:
0/5 (0 votes)

Hard to play? Try these video lessons and learn fast.
                -------------------------------------------------------------------------------
			     Lyin Eyes – The Eagles
-------------------------------------------------------------------------------


Tuning: normal

There are only four different bass root notes in the verse; G C A D.
All that the bass is doing is playing the root note twice, followed by the fifth in that 
major scale (basically, two frets up on the next string down)

	When the chord is a G play this:

G|---------------------------------------------------------------------------|
D|---------------------------------------------------------------------------|
A|-----5-------5-------------------------------------------------------------|
E|-3-3-----3-3---------------------------------------------------------------|
	When the chord is a C play:
G|---------------------------------------------------------------------------|
D|-----5------5--------------------------------------------------------------|
A|-3-3----3-3----------------------------------------------------------------|
E|---------------------------------------------------------------------------|
	When the chord is an A play:
G|------------------------------------------------------------------------------|
D|------------------------------------------------------------------------------|
A|-----7------7-----------------------------------------------------------------|
E|-5-5----5-5-------------------------------------------------------------------|
	And for a D play:
G|---------------------------------------------------------------------------|
D|-----7------7--------------------------------------------------------------|
A|-5-5----5-5----------------------------------------------------------------|
E|---------------------------------------------------------------------------|

During the chorus there is also an Em and Bm. But the fifths thing still works well. So…
	For the Em play:
G|-----4---------------------------------------------------------------------|
D|-2-2-----------------------------------------------------------------------|
A|---------------------------------------------------------------------------|
E|---------------------------------------------------------------------------|
	And again for the Bm use:
G|---------------------------------------------------------------------------|
D|-----4---------------------------------------------------------------------|
A|-2-2-----------------------------------------------------------------------|
E|---------------------------------------------------------------------------|

It’s really simple but occasionally the verse chords are only played for 1 bar so watch 
for that. Hope you like the tab!!!


| /  slide up
| \  slide down
| h  hammer-on
| p  pull-off
| ~  vibrato
| +  harmonic
| x  Mute note
===============================================================================
            
Hard to play? Try these video lessons and learn fast. | Correct




comments powered by Disqus
↑ Back to top | Tablatures and chords are parodies/interpretations of the original songs. You may use it for private study, scholarship, research or language learning purposes only