» » »

Eagles, Lyin Eye Bass tabs (ver.1)

Artists:  A B C D E F G H I J K L M N O P Q R S T U V W X Y Z # 

Lyin Eye Bass tabs (ver.1)

Eagles Tabs
Rating:
0/5 (0 votes)
Hard to play? Try these video lessons and learn fast.
                -------------------------------------------------------------------------------
			     Lyin Eyes – The Eagles
-------------------------------------------------------------------------------


I don't intend to write out all of the licks for this song. But I am going to show you 
I play because all the tabs which I have found for this are completely wrong!
This is my first tab so it's probably not going to look pretty but I am going to assume 
can do the rythmn for this song because its so easy to hear!


Intro:
G|-----------------5--5-------------------------------------------------|
D|5--5-----5--55-------5-------5----------------7---5--5----5--5--------|
A|----5---5----------------3--3-3-------7---5--5--------5-------5-------|
E|----------------------------------5--5--------------------------------|

Verse:
The verse is more or less this. The bassist seems to add the root of whatever chord he 
playing sometimes at the end of one of chords but I am sure you can hear that for yourself

G|---------------------------------------------------------------|
D|5--55--5--55------5------5---------------------7------7--------|
A|--------------3--3---3--3-3------7------7--5--5---5--5---------|
E|-----------------------------5--5---5--5-----------------------|


G|---------------------------------------------------------------|
D|5--55--5--55------5------5-----------------5--5---5--5---------|
A|--------------3--3---3--3-3------7------7------5------5--------|
E|-----------------------------5--5---5--5-----------------------|

Chorus:

G|---------------------------------------------------------------|
D|5--55--------------------54--2--2-------4-------------7--------|
A|-------3--33---------------------2--2--2-------7--5--5---------|
E|--------------3--33--3--3------------------5--5----------------|

G|----------------------------------------------------------------|
D|5--55--5--55------5-------5-------------7--5--5---5--5----------|
A|--------------3--3-3--3--3-------7--5--5-------5------5---------|
E|-----------------------------5--5-------------------------------|


You should be able to work out any of the licks etc. All of the tabs I have seen have 
really half baked. Hope you liked it.
            

comments powered by Disqus
↑ Back to top | Eagles Bass for Lyin Eye. Lyrics for acoustic guitar and electric guitar. Tablatures and chords are parodies/interpretations of the original songs. You may use it for private study, scholarship, research or language learning purposes only