» » »

Eagles, Love Will Keep Us Alive Bass tabs (ver.1)

Artists:  A B C D E F G H I J K L M N O P Q R S T U V W X Y Z # 

Love Will Keep Us Alive Bass tabs (ver.1)

Eagles Tabs
 Rating:
4/5 (4 votes)
Love Will Keep Us Alive lessons Tabs too difficult? Try these video lessons and learn fast
1
                !!! IMPROVED VERSION !!!
Song = Love Will Keep Us Alive
Artist = Eagles
Album = Hell Freezes Over
Lyrics = P.Vale/J.Capaldi/P.Carrack




Key:   |= bar lines (not accurate,only use as guide)
       \= slide down     0:14= CD time

A Major (F# minor)
Tempo = 50
                              0:14    I was standing-       you were
G--------|----------|----------|--------|--------|----------|---------
D--------|----------|----------|--------|--------|----------|---------
A--------|--79--9-9-|-9\5--5-5-|-7----7-|--------|--79--9-9-|-5--5-5--
E-5--5-5-|-9--------|----------|--------|-5--5-5-|-9--------|---------


        0:39
         |Fig 1..  ..   ..   ..   ..   ..  ..end fig 1|
G--------|--------|----------|---------------|--------|--------|
D--------|--------|----------|---------------|---(7-7)|--------|
A-7--7-7-|--------|--79--9-9-|-9\5----57-7---|--------|--------|
E--------|-5--5-5-|-9--------|---------------|-5--5-5-|-5--5-5-|   
                                                  ^ ^
                                                 (V2 uses
                                                 high A)

                            1:18
G----------|--------|--------|-------|------------|----------|--------
D----------|--------|--------|-Fig 1-|------------|----------|--------
A--79--9-9\|-5--5-5-|-7------|-------|-----5--5-5-|-579--9-9-|9-------
E-9--------|--------|----0-0-|-------|-7-9--------|----------|--7--7-7


              1:57
                             (Guitar solo ..   ..   ..   ..   ..   ..)
G--------------|-----------|-----------|----------|----------|--------
D--------------|-Fig 1-----|----7------|----------|----------|--------
A--57--5-------|---V2------|-9-5-------|--79--9-9-|-9\5--5-5-|--------
E-9-------9--7-|-----------|-------5-5-|-9--------|----------|-5--5-5-


                       2:44
G------------|----------|----------|--------------|--------|----------
D------------|----------|----------|--------------|--------|----------
A-----5--5-5-|-779--9-9-|-95-------|--57--5-------|--------|--79--9-9-
E-7-9--------|----------|---7--7-7-|-9-------9--7-|-5--5-5-|-9--------


                   3:13                3:24
G----------|--------|--------|----------|------------|---------|
D----------|--------|--------|----------|------------|---------|
A-9\5--5-5-|-7--7---|--------|--79--9-9-|-9\5---57-7-|------79-|
E----------|------0-|-5--5-5-|-9--------|------------|-5---9---|
                                                 


G------------|---------|------------|--------|--------------------
D------------|---------|------------|--------|--------------------
A-9\5---57---|------79-|-9\5-----7--|--------|--------------------
E----------0-|-5---9---|------------|-5--5-5-|-5----5-------------
                                                    
                                                
(Printing: load into Notepad, set left & right margins to
10mm and print.)
            
Submit corrections

comments powered by Disqus
↑ Back to top | Eagles Bass for Love Will Keep Us Alive. Lyrics for acoustic guitar and electric guitar. 1 Tablatures and chords are parodies/interpretations of the original songs. You may use it for private study, scholarship, research or language learning purposes only