» » »

Eagles, Love Will Keep Us Alive Tabs (ver.1)

Artists:  A B C D E F G H I J K L M N O P Q R S T U V W X Y Z # 

Love Will Keep Us Alive Tabs (ver.1)

Eagles Tabs
 Rating:
4/5 (4 votes)
Love Will Keep Us Alive lessons Tabs too difficult? Try these video lessons and learn fast
1
                "Love Will Keep Us Alive" 
Eagles: Hell Freezes Over 
Geffen 1994 
 
This is my first tab so please excuse any errors. I did this by ear 
so a few notes here and there might be extra/switched but you'll know when 
you hear it. I threw in some bass notes to make it fuller. Since a lot is  
repetitive I just tabbed the important stuff. This particular song seems  
to please the ladies and is an easy acoustic piece, so enjoy. Solo is included. 
Long live the Eagles! 
 
The main part is: 
 
4/4, pop feel - let notes ring out on acoustic guitar 
 
A                                    F#
-----0----------0--|-----0---------0-|-----0---------0-|-----0---------0---   
-------0------0----|-------0-----0---|-------0-----0---|-------0-----0-----  
---2--------2------|---2-------2-----|---2-------2-----|---2-------2------- 
-------------------|-----------------|-----------------|------------------- 
-0-----------------|-0---------------|-----------------|------------------- 
-------------------|-----------------|-2---------------|-2----------------- 
 
D                                    E
-----0----------0--|-----0---------0-|-----0---------0-|-----0-----------0 
-------0------0----|-------0-----0---|-------0-----0---|-------0-------0-- 
---2--------2------|---2-------2-----|---1-------1-----|---1-------1_2---- 
-0-----------------|-0---------------|-----------------|------------------ 
-------------------|-----------------|-----------------|------------------ 
-------------------|-----------------|-0---------------|-0---------------- 
 
 
Chorus goes as follows: 
 
D                                    Gb Minor
-----2----------2--|-----2---------2-|-----2---------2-|-----2---------2-- 
-------3------3----|-------3-----3---|-------2-----2---|-------2-----2---- 
---2--------2------|---2-------2-----|---2-------2-----|---2-------2------ 
-0-----------------|-0---------------|-----------------|------------------ 
-------------------|-----------------|-----------------|------------------ 
-------------------|-----------------|-2---------------|-2---------------- 
 
                                                       
Bsus                                                   
-----2----------2--|-----2---------2-|-------0-------0-|-------0---------- 
-------0------0----|-------0-----0---|-----0-------0---|-----0------------ 
---2--------2------|---2-------2-----|---1-------1-----|---1-------------- 
-------------------|-----------------|-2-------0-------|------------------ 
-2-----------------|-2---------------|-----------------|-4-------2-------- 
-------------------|-----------------|-----------------|------------------ 
 
Don Felder's Solo goes as follows (use main chord progressions): 
 
(with slide on electric guitar, reverb and chorus (?) ) 
  
        A                 F#                  D                        E
--------------------------------------------------------------10----10-------- 
------5-5/7\5~~~-----7\5--------------------5-5/7~~~-----7/10----10----10/14~~ 
--5/6---------------------5/6~~~--------5/6---5/7~~~-------------------------- 
 
 
-14/15--13/14--10\5~~~-------------------------------------------------------- 
 
 
 
Tab notation: 
 
~~~  Vibrato 
/    Slide up 
\    Slide Down 
_    Hammer on/pull off 
 
Have fun with this easy song! Email welcome
            
Submit corrections

comments powered by Disqus
↑ Back to top | Eagles Tabs for Love Will Keep Us Alive. Lyrics for acoustic guitar and electric guitar. 1 Tablatures and chords are parodies/interpretations of the original songs. You may use it for private study, scholarship, research or language learning purposes only