» » »

Eagles, Desperado Tabs (ver.3)

Artists:  A B C D E F G H I J K L M N O P Q R S T U V W X Y Z # 

Desperado Tabs (ver.3)

Eagles Tabs
Rating:
0/5 (0 votes)
Desperado lessons Tabs too difficult? Try these video lessons and learn fast
                (Intro)
This would be the opening to Desperado :3

e----------0---------------------------------------------0---------------------------
b--0--3-0--0---3--0---------------------------0--3--0--0----3--0---0-----------------
G--0-------0---------0----0-----2-------0-2---0--------0-------0---0--2--0--2--------
D--0-------3------------2----2--1----1--------0--------2-----------2--------0-------0
A-----------------------3-------3----------------------2-----------0-----------------
E--3-------3----------------------------------3--------0-----------------------------

e----------0--------------------------------------------------------------------0----
b--0--3-0--0---3---------------------------------0-----------------------0-3-0-----3-
G--0-------0---------0------------------------------2---0---0---2--0-0-0-------------
D--0-------3------------0----2-----2--0-------------------2---2---------------------0
A-----------------0------------------------------------------------------------------
E--3-------3-------------------------------------------------------------------------
            

comments powered by Disqus
↑ Back to top | Eagles Tabs for Desperado. Lyrics for acoustic guitar and electric guitar. Tablatures and chords are parodies/interpretations of the original songs. You may use it for private study, scholarship, research or language learning purposes only