» » »

Eagles, Desperado Bass tabs (ver.1)

Artists:  A B C D E F G H I J K L M N O P Q R S T U V W X Y Z # 

Desperado Bass tabs (ver.1)

Eagles Tabs
 Rating:
4/5 (9 votes)
Desperado lessons Tabs too difficult? Try these video lessons and learn fast
                



Don't you draw the queen  diamonds boy...                 
|----------------|----------------|----------------|----------------|
|----------------|2---------------|----------------|----------------|
|----------------|----------------|2---------------|3---------------|
|----------------|----------------|----------------|----------------|

                                                             
|0---------------|----------------|----------------|0---------------|
|--------4-------|2---------------|----------------|----------------|
|----------------|----------------|3---------------|----------------|
|----------------|----------------|----------------|----------------|

       Now it  seems to me some fine things have been layed              upon...        
|0---------------|----------------|----------------|----------------|
|--------4-------|2---------------|----------------|----------------|
|----------------|------------0-1-|2-----------2---|3---------------|
|----------------|----------------|----------------|----------------|

                                                             
|0---------------|----------------|----------------|----------------|
|--------4-------|2-------------0-|----------------|0---------------|
|----------------|----------------|0---------------|----------------|
|----------------|----------------|----------------|----------------|

 Despe-           rado...                        
|----------------|0---------------|----------------|----------------|
|----------------|----------------|----------------|----------------|
|----------------|----------------|0-------2-------|3---------------|
|----------------|----------------|----------------|----------------|

                                                             
|----------------|0---------------|----------------|----------------|
|----------------|--------4-------|2---------------|----------------|
|3---------------|----------------|----------------|0---------------|
|----------------|----------------|----------------|----------------|

                                                             
|----------------|0---------------|----------------|----------------|
|0-------------0-|----------------|----------------|----------------|
|----------------|----------------|0-------2-------|3---------------|
|----------------|----------------|----------------|----------------|

                                                            
|------------2---|0---------------|----------------|----------------|
|----------------|--------4-------|2---------------|--------0-------|
|3---------------|----------------|----------------|0---------------|
|----------------|----------------|----------------|----------------|

                                                          
|0---------------|----------------|----------------|----------------|
|----------------|4---------------|2-------2-------|----------------|
|----------------|----------------|----------------|2-----------2---|
|----------------|----------------|----------------|----------------|

                                                      
|----------------|0---------------|----------------|----------------|
|----------------|--------4-------|2-----------2---|----------------|
|3---------------|----------------|----------------|3---------------|
|----------------|----------------|----------------|----------------|

                                                             
|0-----------0---|0---------------|----------------|----------------|
|--------------0-|--------4-------|2---------------|----------------|
|----------------|----------------|------------0-1-|2---------------|
|----------------|----------------|----------------|----------------|

                                                           
|----------------|----------------|----------------|----------------|
|----------------|----------------|----------------|----------------|
|3---------------|----------------|0---------------|--------0-2-3-4-|
|----------------|3-------------3-|----------------|----------------|

                                                          
|----------------|----------------|0---------------|----------------|
|0-------0-------|--------0-------|----------------|----------------|
|----------------|----------------|----------------|0---------------|
|----------------|----------------|----------------|----------------|

                                                            
|----------------|----------------|0---------------|----------------|
|----------------|----------------|--------4-------|2---------------|
|3---------------|3---------------|----------------|----------------|
|----------------|----------------|----------------|----------------|

                                                       
|----------------|----------------|0-----------0---|----------------|
|----------------|0-------0-------|----------------|----------------|
|0---------------|----------------|----------------|0-------2-------|
|----------------|----------------|----------------|----------------|

                                                          
|----------------|----------------|0---------------|----------------|
|----------------|----------------|--------4-------|2-------0-------|
|3-------3-------|3-------3-------|----------------|----------------|
|----------------|----------------|----------------|----------------|

                                                
|----------------|----------------|----------------|----------------|
|----------------|----------------|0-------1-------|2---------------|
|3-------2-------|0---------------|----------------|----------------|
|----------------|----------------|----------------|----------------|

                                                     
|----------------|0---------------|----------------|0---------------|
|----------------|----------------|----------------|----------------|
|----------------|----------------|3---------------|----------------|
|----------------|----------------|----------------|----------------|
            
Submit corrections

comments powered by Disqus
↑ Back to top | Eagles Bass for Desperado. Lyrics for acoustic guitar and electric guitar. Tablatures and chords are parodies/interpretations of the original songs. You may use it for private study, scholarship, research or language learning purposes only