» » »

Eagles, Best Of My Love Bass tabs (ver.2)

Artists:  A B C D E F G H I J K L M N O P Q R S T U V W X Y Z # 

Best Of My Love Bass tabs (ver.2)

Eagles Tabs
 Rating:
4/5 (4 votes)
Best Of My Love lessons Tabs too difficult? Try these video lessons and learn fast
                ----------------------------------------------------------------------------
			     BEST OF MY LOVE - Eagles
----------------------------------------------------------------------------


Tuning: Standard
  Intro:
G|-975---------------------------------------------------------------------|
D|----75------5----5-5----7----5/75----------------------------------------|
A|------75-3-3--3-3-3-35-5--5-5--------------------------------------------|
E|-------------------------------------------------------------------------|

  Verse:
  Every night...         Thinkin' about...
G|------------------------------------------5-5----------------------------|
D|----5----5----7----5/75---5----5----7---57---7---------------------------|
A|-3-3--3-3--5-5--5-5----3-3--3-3--5-5--5----------------------------------|
E|-------------------------------------------------------------------------|

  We try to talk...       I know your tryin'...
G|-------------------------------------------------------------------------|
D|---------5/75--------------5----75----5--5-3-----------------------------|
A|-7-77-5-5-----7-77------3-3--5-5---3-3-------7-5-------------------------|
E|-------------------1-----------------------------------------------------|

  Baeutiful faces...             Wastin' our time...
G|-----------------------5-------------------------------------------------|
D|----5----5-5----7---5h7--7\-------5----5----7----5/75--------------------|
A|-3-3--3-3-3-35-5--5------------3-3--3-3--5-5--5-5------------------------|
E|-------------------------------------------------------------------------|

  The same old crowd...          But here in my heart...
G|-------------------------------------------------------------------------|
D|---------5/75---------------------5----75----5--5-3----------------------|
A|-7-77-5-5-----7-77-5-55-510----3-3--5-5---3-3-------7-5------------------|
E|-------------------------------------------------------------------------|

  Chorus:
  Oh,sweet darlin'...          Oh,sweet darlin'... 
G|-----------------------5---------------------------5---------------------|
D|----5----5-5----7---5h7--75-----5----5-5----7---5h7--75------------------|
A|-3-3--3-3-3-35-5--5--------753-3--3-3-3-35-5--5--------75----------------|
E|-------------------------------------------------------------------------|

  Bridge:
  I'm going back in time...   It was a quiet night...
G|---------7h8h7-----------------------7h8h7-------------------------------|
D|--------------75--------------------------107----------------------------|
A|-8-88-8-8-------753-33-3-33-8-88-88-8--------105-------------------------|
E|--------------------------------------------------3----------------------|

  Verse:
  But every mornin'...         You see it your way...
G|-----------------------5--------------------------5----------------------|
D|----5----5-5----7---5h7--75------5----5----7---5h7--75-------------------|
A|-3-3--3-3-3-35-5--5--------753--3--3-3--5-5--5---------------------------|
E|-------------------------------------------------------------------------|

  You know we always...       But here in my heart...
G|-------------------------------------------------------------------------|
D|-------------------------------5----75----5--5-3-------------------------|
A|-7-77-5-55-7-77-5-55-510----3-3--5-5---3-3-------7-5---------------------|
E|-------------------------------------------------------------------------|

  Chorus:
  Oh,sweet darlin'...      Oh, sweet darlin'...
G|---------------------------------------------5---------------------------|
D|----5----5/75----7----75----5----5----7---5h7--75------------------------|
A|-3-3--3-3-----5-5--5-5---3-3--3-3--5-5--5--------75---------------------|
E|-------------------------------------------------------------------------|

  Oh, sweet darlin'...     Oh, sweet......)Repeat to fade
G|-------------------------------------------------------------------------|
D|----5---5h73h5----7--5/75----5----5--------------------------------------|
A|-3-3--3--------5-5--5-----3-3--3-3---------------------------------------|
E|-------------------------------------------------------------------------|



| /  slide up
| \  slide down
| h  hammer-on
| p  pull-off
| ~  vibrato
| +  harmonic
| x  Mute note
============================================================================
            
Submit corrections

comments powered by Disqus
↑ Back to top | Eagles Bass for Best Of My Love. Lyrics for acoustic guitar and electric guitar. Tablatures and chords are parodies/interpretations of the original songs. You may use it for private study, scholarship, research or language learning purposes only