>
 >
Best Of My Love

Best Of My Love Guitar Tabs

Eagles - Best Of My Love chords, tabs, tablatures, lyrics

Guitar lessons | Add/correct | Request | Top 50 tabs Artists:  A B C D E F G H I J K L M N O P Q R S T U V W X Y Z 0-9

Best Of My Love Guitar Tabs – Eagles

CD, Sheet music, Poster

Do you like Best Of My Love? Share with your friends now
Bass TabsBass Tabs v2ChordsChords v2Chords v3Chords v4Chords v5Chords v6TabsUkulele
-----------------------------------------------------------------------------
                             Best Of My Love - THe Eagles
-----------------------------------------------------------------------------

Tuning:

Introx2
e|--0--0--0--0----0--0--0--0-0-0-0---0-0-0--0-0-0-0---0-0-0-0-0-0-0----0-0-0-|
B|--0--1--1--1----1--1--1--0-1-1-1---1-1-1--0-1-1-1---1-1-1-0-1-1-1----1-1-1-|
G|--0--0--0--0----0--0--0--0-0-0-0---0-0-0--0-2-2-2---2-2-2-0-2-2-2----2-2-2-|
D|--0--2--2--2----2--2--2--0-2-2-2---2-2-2--3-3-3-3---3-3-3-3-3-3-3----3-3-3-|
A|--3--3--3--3----3--3--3--3-3-3-3---3-3-3-----------------------------------|
E|---------------------------------------------------------------------------|

Verse
e|-----------0--------------0-0----------------------------------------------|
B|-0-1-1-1---1---0-1-1-1----1-1-----1-1-1-----1------------------------------|
G|-----------0-0---------0--0-0--2----------2--------------------------------|
D|-------------------------------3-------------------------------------------|
A|---------------------------------------------------------------------------|
E|---------------------------------------------------------------------------|

e|-------0---0--0------------------0--0--------------------------------------|
B|-------1---1--1----0---1-1-1-----1--1-----1-1-1-----1-1---0--1-3-1-1-------|
G|--2----2---2--2----0----------0--0--0--2-----------------------------0-----|
D|----3--3---3--3------------------------3-----------------------------------|
A|---------------------------------------------------------------------------|
E|---------------------------------------------------------------------------|

e|-------0----------1--1---0-------------0-----------------------------------|
B|-0-1-1---1-1--1---1--1---3--3--3--1-3-----1--------------------------------|
G|------------2-----2--2---0-------------------------------------------------|
D|---------------------------------------------------------------------------|
A|---------------------------------------------------------------------------|
E|---------------------------------------------------------------------------|

e|-------------1---------------0----------------------------------------------|
B|-(1)---------1----0--3--3-3-----1---1--------0--1--1--1----1----------------|
G|------0-2----2--2-------------------2-----0--0-----------------0------------|
D|------------------------------------3---------------------------------------|
A|----------------------------------------------------------------------------|
E|----------------------------------------------------------------------------|

e|-----------------------0--0--3--1-0------3------------  0-------------------|
B|-0--1--1--1-----3-1-1--1--1--0--0-0--3---0---------1--- 1-------------------|
G|--------------0--------0--0--0--0-0--0---0----0--2------0-------------------|
D|----------------------------------------------------------------------------|
A|----------------------------------------------------------------------------|
E|----------------------------------------------------------------------------|

Chorus


e|-(0)----0------------------------------------------------------------------|
B|-(1)------3--1--1---1-----3-------------1------1-----0--1------------------|
G|-(0)--------------2----2-----2---2---2-----2-----2-------------------------|
D|---------------------------------3-----------------------------------------|
A|---------------------------------------------------------------------------|
E|---------------------------------------------------------------------------|

e|-----------------------0----0-----------------------------------------------|
B|------------------1----0------3----1--1-----1-----3-------------------------|
G|----------0----2-------0-----------------2-----2-----2----------------------|
D|-2--------------------------------------------------------------------------|
A|----3-----------------------------------------------------------------------|
E|----------------------------------------------------------------------------|

Bridge
e|---------------------------------------------------------------------------|
B|----------1-----1-----3--------1-1-1-1-1-1-1-------1-1-1-------------------|
G|--(2)--2-----2----2------2--2--2-2-2-2-2-2-1-------------------------------|
D|-------------------------------3-3-3-3-3-3-3-------------------------------|
A|---------------------------------------------------------------------------|
E|---------------------------------------------------------------------------|

e|--------------------------0-0-0-0-0-0--------------------------------------|
B|-0--1--1-1-1-1------------1-1-0-1-1-1-----1--1--1--------------------------|
G|-----------------2--0--0--0-0-0-0-0-0--------------------------------------|
D|---------------------------------------------------------------------------|
A|---------------------------------------------------------------------------|
E|---------------------------------------------------------------------------|

e|------------------------------5---3-3---0----------------------------------|
B|-0--1--1-1-1-1--3-4--4--3--1------------0---3--3----1----------------------|
G|----------------------------------------0----------------------------------|
D|---------------------------------------------------------------------------|
A|---------------------------------------------------------------------------|
E|---------------------------------------------------------------------------|

Outro-Chorus
e|--3-------------0--3----0-------------0-0-0-0------------------------------|
B|--0-----1--3-------1--------3----1----1-1-1-1------------------------------|
G|--0----------------0------------------0-0-0-0------------------------------|
D|---------------------------------------------------------------------------|
A|---------------------------------------------------------------------------|
E|---------------------------------------------------------------------------|

e|-------------------------------1---------1--0--0--0-0-0---0----------------|
B|--1-----1-----1-----0--1-------1--1--1--3---------0-0-1------3-------------|
G|--2---2----2-----2-------2-----2------------------0-0-0--------------------|
D|--3------------------------3-----------------------------------------------|
A|---------------------------------------------------------------------------|
E|---------------------------------------------------------------------------|

e|---------0-0-0-0-1---------------------1-----1--0--------------------------|
B|-(3)--1--1-1-1-1-1-----1-----1-----1---1--1--------3-----------------------|
G|---------0-0-0-0-2--2-----2-----2----2-2-------------0---------------------|
D|---------------------------------------------------------------------------|
A|---------------------------------------------------------------------------|
E|---------------------------------------------------------------------------|

e|-0---0----0-------0--0-------------1-1-------------------------------------|
B|-0---1------3---1---------3--1--3----1-----1-----1-----1-------------------|
G|-0---0-------------------------------2---2----2-----2----------------------|
D|---------------------------------------------------------------------------|
A|---------------------------------------------------------------------------|
E|---------------------------------------------------------------------------|


e|----------1--0--1--0--0----0---------------0---------1----------------------|
B|-------3-----------0--1------3----1----3-----3---1---1-----1----1----3------|
G|--2----------------0--0------------------------------2---2---2----2----2----|
D|----3-----------------------------------------------------------------------|
A|----------------------------------------------------------------------------|
E|----------------------------------------------------------------------------|

e|-------------------0---1-----------------------------------------0--0------|
B|-----1---1--1---3------1------1----1----3----------1---1--1---3-----1------|
G|--2--2-----------------2---2----2----2------2---2--2----------------0------|
D|-----3---------------------------------------------3----------------2------|
A|--------------------------------------------------------------------3------|
E|---------------------------------------------------------------------------|

Guys its a slow song so figure out the timing and tempo:).pce out





Comments


Popular Eagles tabs & chords
One Of These Nights 1 Bass Tabs
Doolin-dalton Chords
Hollywood Waltz 1 Chords
One Of These Nights 1 Chords
All Night Long Intro Tabs
New Kid In Town 1 Tabs
Pretty Maids All In A Row Tabs
Take The Devil 2 Tabs
Whitchy Woman Intro Tabs
James Dean Ukulele


Song lyrics



↑ Back to top | Tablatures and chords are parodies/interpretations of the original songs. You may use it for private study, scholarship, research or language learning purposes only
© 2014 AZChords.com Contact us | Privacy policy | DMCA | Add/correct tabs | Request tabs | Top 50 tabs